Home » R » Reik »

Reik - Ilusionado Tabs

Artists:  A B C D E F G H I J K L M N O P Q R S T U V W X Y Z # 

Ilusionado Tabs

(ver. 1) Click to play this song!
Reik
h=hammer on
/=slide
capo en 5
intro y los versos se tocan iguales:

e|-------------------------------------------------|
B|------6----6------5h6-6-6------6-6-5-5-5-5h6-5---|
G|------5h7--7------7---7-7------5-5-5-5-5-5---5---|
D|------7----8------8---8-8------7-7-5-5-5-5---5---|  esto se repite
A|--5-5-5----8-8-8--8---8-8--8-8-8-8-7-7-7-7---7---|
E|-------------------------------------------------|

bridge:
Dm          F                C
Sin razon me has robado el corazon

coro:
G                   C      G
pero todavia quiero verte, tenerte
Am               F        C       G
buscar la fuerza para enamorarte, besarte,
Dm                 G
Lograr que todo este mejor

Y hablarte tocarte
Vivir en la ilusion
Recuperarte, tomarte
O pensar que todo esto fue un error

solo:
e|--8/10--8-10-8----------------13-13-13------|
B|---------------10-8-6-8-6-----13-13-13------|
G|--------------------------7-----------------|
D|--------------------------------------------|
A|--------------------------------------------|
E|--------------------------------------------|

final:

yo quiero verte, tenerte
e|------------------------|
B|--8/10-8-6---6----------|
G|-----------7---7--------|
D|------------------------|
A|------------------------|
E|------------------------|

enamorarte, besarte
e|--10------------------|
B|-----8/10-------------|
G|----------------------|
D|----------------------|
A|----------------------|
E|----------------------|
            
Submit corrections

↑ Back to top | Tablatures and chords for acoustic guitar and electric guitar, ukulele, drums are parodies/interpretations of the original songs. You may use it for private study, scholarship, research or language learning purposes only