» » »

Regine Velasquez - You Are My Song Tabs

Artists:  A B C D E F G H I J K L M N O P Q R S T U V W X Y Z # 

You Are My Song Tabs

(ver. 1) Click to play this song!
Regine Velasquez
 Rating:
4.3/5 (20 votes)

 You Are My Song lessons Tabs too difficult? Try these video lessons and learn fast
 
                Tuning:standard

[Intro]
e|-4------3-4------------3----------------------------------6-6-------------------------|
B|------4--------------6----6----9-------9----9-9---------------8-----------------------|
G|---5--------------5------------------6----6------------8------------------------------|
D|----------------3------3--------------------------------------------------------------|
A|------------------------------------------------------6-----6-------------------------|
E|-4---------------------------------6---6----------------------------------------------|

e|-8\6--4-------6----4-------4------------------------6-6-8----------------------------|
B|-------------4----------6-----6-9---------9------------------------------------------|
G|----------5-----------5-----------------6----6---8-----------------------------------|
D|-------------------3-------4---------------------------------------------------------|
A|-----------------------------------------------6--------6----------------------------|
E|------4-------------------------------6----------------------------------------------|

[Verse] x2
e|-1-----0-1-------------------------------------------0-----------------------------|
B|------------1---------1--------------------------------1---------------------------|
G|----2---------------2----3-2---3-----2-3-0---------0-----0-------------------------|
D|-3-----3----------2---------------0-------------2----------------------------------|
A|----------------0-----0----------------------3-------3-----------------------------|
E|-------------------------------3-----3---------------------------------------------|

e|-1---0-1-----------------------------1------------------0--------|
B|---------1-------------1-----------------------------------1-----|
G|---2-----------------2----3-2---3------3-0----------0---------0--|
D|-3---3------------2----------------0---------------2-------------|
A|----------------0------0-------------------------3------3--------|
E|--------------------------------3----3---------------------------|

[Refrain]
e|---------------------------0---------------------------------------------------------|
B|--2------------1-------------1---------------------------3-1-------------------------|
G|-------3-0--------------2-------2---3----3-0-----------------2-----------------------|
D|----0-------3---------2----------------0-------3-2--------------2--------------------|
A|--------------------0------0---------------------------0---0-------------------------|
E|--3---------------------------------3------------------------------------------------|

e|------------0-------------1------------0----5------------3-----------3-----------------|
B|-2---------------------1---------------3--3--------------3-3-----------3---------------|
G|------0--------------2-0-----------2------------------3------------3-----3-------------|
D|---0----3----------2------------0------0-------------0-----------0---------------------|
A|-----------------0-----0---------------------------------------------------------------|
E|-3------------------------------------------------3------3----3------3-----------------|

e|------3/5-3-1-------------------0-------0---------------------------------------------|
B|-----------------3------------3------------1------------------------------------------|
G|----------------------------0---------0-------0---------------------------------------|
D|-------------------------2---------2--------------------------------------------------|
A|----------------------3---------3-------3---------------------------------------------|
E|--3-----------------------------------------------------------------------------------|

[Chorus]
e|-1---------0-1----------------0-1--------------1-----1-1----------3-3-------|
B|-------1------------------3------------------------3-------------------1----|
G|----2----2------------2-----2----------------3---------------------------0--|
D|-3---------3-------0----------3------------0-------------------2------------|
A|--------------------------------------------------------------3-----3-------|
E|-----------------------------------------3-----3----------------------------|

e|-1----------0-1--------------0-1------------1---3-3/5--------------3-----|
B|-------1-----------------3--------------------3-----------------------4--|
G|----2----2-----------2-----2--------------3----------------------0-------|
D|-3----------3-----0----------0---------0----------------------2----------|
A|------------------------------------------------------------3------3-----|
E|-------------------------------------3------3----------------------------|

e|-4------3-4------------3----------------------------------6-6--------------------------|
B|------4--------------6----6----9-------9----9-9----------------8-----------------------|
G|---5--------------5------------------6---6-------------8-------------------------------|
D|----------------3------3---------------------------------------------------------------|
A|-----------------------------------------------------6------6--------------------------|
E|-4---------------------------------6---6-----------------------------------------------|

e|-8\6--4--------6----4-------4--------------------------6-6-8--|
B|-------------4------------6----6-9---------9------------------|
G|----------5------------5----------------6----6------8---------|
D|--------------------3-------4---------------------------------|
A|--------------------------------------------------6--------6--|
E|------4-------------------------------6----6------------------|

[Verse] x2
e|-1-----0-1-------------------------------------------0-----------------------------|
B|------------1---------1--------------------------------1---------------------------|
G|----2---------------2----3-2---3-----2-3-0---------0-----0-------------------------|
D|-3-----3----------2---------------0-------------2----------------------------------|
A|----------------0-----0----------------------3-------3-----------------------------|
E|-------------------------------3-----3---------------------------------------------|

e|-1---0-1-----------------------------1------------------0--------|
B|---------1-------------1-----------------------------------1-----|
G|---2-----------------2----3-2---3------3-0----------0---------0--|
D|-3---3------------2----------------0---------------2-------------|
A|----------------0------0-------------------------3------3--------|
E|--------------------------------3----3---------------------------|

[Refrain]
e|---------------------------0---------------------------------------------------------|
B|--2------------1-------------1---------------------------3-1-------------------------|
G|-------3-0--------------2-------2---3----3-0-----------------2-----------------------|
D|----0-------3---------2----------------0-------3-2--------------2--------------------|
A|--------------------0------0---------------------------0---0-------------------------|
E|--3---------------------------------3------------------------------------------------|

e|------------0-------------1------------0----5------------3-----------3-----------------|
B|-2---------------------1---------------3--3--------------3-3-----------3---------------|
G|------0--------------2-0-----------2------------------3------------3-----3-------------|
D|---0----3----------2------------0------0-------------0-----------0---------------------|
A|-----------------0-----0---------------------------------------------------------------|
E|-3------------------------------------------------3------3----3------3-----------------|

e|------3/5-3-1-------------------0-------0---------------------------------------------|
B|-----------------3------------3------------1------------------------------------------|
G|----------------------------0---------0-------0---------------------------------------|
D|-------------------------2---------2--------------------------------------------------|
A|----------------------3---------3-------3---------------------------------------------|
E|--3-----------------------------------------------------------------------------------|

[Chorus]
e|-1---------0-1----------------0-1--------------1-----1-1----------3-3-------|
B|-------1------------------3------------------------3-------------------1----|
G|----2----2------------2-----2----------------3---------------------------0--|
D|-3---------3-------0----------3------------0-------------------2------------|
A|--------------------------------------------------------------3-----3-------|
E|-----------------------------------------3-----3----------------------------|

e|-1----------0-1--------------0-1------------1---3-3/5--------------3-----|
B|-------1-----------------3--------------------3-----------------------4--|
G|----2----2-----------2-----2--------------3----------------------0-------|
D|-3----------3-----0----------0---------0----------------------2----------|
A|------------------------------------------------------------3------3-----|
E|-------------------------------------3------3----------------------------|

e|-4------3-4------------3----------------------------------6-6--------------------------|
B|------4--------------6----6----9-------9----9-9----------------8-----------------------|
G|---5--------------5------------------6---6-------------8-------------------------------|
D|----------------3------3---------------------------------------------------------------|
A|-----------------------------------------------------6------6--------------------------|
E|-4---------------------------------6---6-----------------------------------------------|

e|-8\6--4--------6----4-------4--------------------------6-6-8--|
B|-------------4------------6----6-9---------9------------------|
G|----------5------------5----------------6----6------8---------|
D|--------------------3-------4---------------------------------|
A|--------------------------------------------------6--------6--|
E|------4-------------------------------6----6------------------|

[Outro]
e|-1---------0-1---------------0-1--------------1------------3-3-3/5--|
B|-------1-----------------3----------------------3-------------------|
G|----2----2------------2----2---------------3------------------------|
D|-3---------3-------0---------0----------0---------------2-----------|
A|-----------------------------------------------------3-------3------|
E|--------------------------------------3-------3---------------------|

e|---5--------5---------------------1---------------------------------------------|
B|---------------5----------------1-----------------------------------------------|
G|---------5-------5----------2---------------------------------------------------|
D|------5-------------------3-----------------------------------------------------|
A|---5--------5-------------------------------------------------------------------|
E|--------------------------------------------------------------------------------|            
Submit corrections


        You Are My Song lessons Hard to play? Try these video lessons and learn fast You Are My Song lessons
        
↑ Back to top | Tablatures and chords for acoustic guitar and electric guitar, ukulele, drums are parodies/interpretations of the original songs. You may use it for private study, scholarship, research or language learning purposes only