» » »

Regine Velasquez - Kailangan Koy Ikaw Tabs

Artists:  A B C D E F G H I J K L M N O P Q R S T U V W X Y Z # 

Kailangan Koy Ikaw Tabs

(ver. 1) Click to play this song!
Regine Velasquez
 Rating:
4.3/5 (15 votes)

 Kailangan Koy Ikaw  lessons Tabs too difficult? Try these video lessons and learn fast
 
                [Intro]

e|-3-1-0---------0---------------0---------------0---------------0-----------|
B|-5-3-1-----3-----3---3-----3-----3---3-----3-----3---3-----3-----3---3-----|
G|---------0---0-----0-----0---0-----0-----2---2-----2-----0---0-----0-------|
D|---------------------------------------------------------------------------|
A|-------3---------------2---------------0-----------------------------------|
E|-------------------------------------------------------3-------------------|

e|---------1---------------0---------------0---------------------------------|
B|-----3-----3---3-----3-----3---3-----3-----3---3---------------------------|
G|---2---2-----2-----0---0-----0-----0---0-----0-----------------------------|
D|-0-------------------------------------------------------------------------|
A|---------------------------------3---------------3-------------------------|
E|-----------------3---------------------------------------------------------|


[Verse] 2x

e|-3-1-0-------0---------------0-------------0-0---------------0-----1-------|
B|-------3---3---3---3-----1---1-3---3-3---3-----1---1-----1-----1-3-0-------|
G|---------0---0---0-----0-0-0-----0-----2---2-----2-----0---0-----0---------|
D|---------------------------------------------------------------------------|
A|-------3-------------2---------------0-------------------------------------|
E|-----------------------------------------------------3---------------------|

e|-1-------1---0h1-0---------0-------------3-0-------------------------------|
B|-----3-----3-----3-3---3-----1---3-3---3-----3---3-------------------------|
G|---2---2-----2-------0---0-----0-----0---0-----0---------------------------|
D|-0-------------------------------------------------------------------------|
A|-----------------------------------3---------------------------------------|
E|-------------------3-------------------------------------------------------|


[Chorus 1]

1st part
e|-------1-----3-3-----5-5---------------0-------------3-3---------------0-----0-----|
B|---1-----1---1-----1-----0---0-----0---1-1---3-3---3-----3---3-----1-----1-3-1-----|
G|-3---3-----3-----2---------0-----0---0-----0-----0---0-----0-----2---2-----2-------|
D|---------------3-------3-----------------------------------------------------------|
A|-3-------------------------------------------------------------0-------------------|
E|-------------------------------3---------------0-----------------------------------|

e|-1-------1---0h1-0---------0-------------3-0---------------------------------------|
B|-----3-----3-----3-3---3-----1---3-3---3-----3---3---------------------------------|
G|---2---2-----2-------0---0-----0-----0---0-----0-----------------------------------|
D|-0---------------------------------------------------------------------------------|
A|-----------------------------------3-----------------------------------------------|
E|-------------------3---------------------------------------------------------------|

2nd part
e|---------1-----3-3-----5-5-----------5/7---7-------7-----8-8-----------------------|
B|-----1-----1---1-----1-----0---0-----0-------0---5-----0-----0---0-----------------|
G|---3---3-----3-----2---------0-----0-----0-----0-----0---0-----0-------------------|
D|-----------------3-------3---------------------------------------------------------|
A|-3-------------------------------------------------0-------------------------------|
E|---------------------------------0-------------------------------------------------|

e|-------0-0-----------0-1-------1---0h1-0---------0---------------0----------------------|
B|-----2-----2---2-1-3-------3-----3-----3-3---3-----1---3-3---3-1-1-1---1----------------|
G|---0---0-----0-----------2---2-----2-------0---0-----0-----0---0-----0------------------|
D|-----------------------0----------------------------------------------------------------|
A|-0-------------------------------------------------------3------------------------------|
E|-----------------------------------------3----------------------------------------------|



repeat intro

e|-3-1-0---------0---------------0---------------0---------------0-----------|
B|-5-3-1-----3-----3---3-----3-----3---3-----3-----3---3-----3-----3---3-----|
G|---------0---0-----0-----0---0-----0-----2---2-----2-----0---0-----0-------|
D|---------------------------------------------------------------------------|
A|-------3---------------2---------------0-----------------------------------|
E|-------------------------------------------------------3-------------------|

e|---------1---------------0---------------0---------------------------------|
B|-----3-----3---3-----3-----3---3-----3-----3---3---------------------------|
G|---2---2-----2-----0---0-----0-----0---0-----0-----------------------------|
D|-0-------------------------------------------------------------------------|
A|---------------------------------3---------------3-------------------------|
E|-----------------3---------------------------------------------------------|


[?horus 2]

e|---------1-----3-3-----5-5-------------8-7-----5-5-----3-3------------------|
B|-----1-----1---1-----1-----0---0-----0-----0---0-----0-----0---3------------|
G|---3---3-----3-----2---------0-----0---0-----0-----0---0-----0--------------|
D|-----------------3-------3-------5------------------------------------------|
A|-3--------------------------------------------------------------------------|
E|-------------------------------------------------0--------------------------|

e|---------0-----0-1-------1---0h1-0-----------------------------------------|
B|-1---1-----1-3-1-----3-----3-----3-----------------------------------------|
G|---2---2-----2-----2---2-----2---------------------------------------------|
D|-----------------0---------------------------------------------------------|
A|-0-------------------------------------------------------------------------|
E|---------------------------------------------------------------------------|


1st part
e|-------1-----3-3-----5-5---------------0-------------3-3---------------0-----0-----|
B|---1-----1---1-----1-----0---0-----0---1-1---3-3---3-----3---3-----1-----1-3-1-----|
G|-3---3-----3-----2---------0-----0---0-----0-----0---0-----0-----2---2-----2-------|
D|---------------3-------3-----------------------------------------------------------|
A|-3-------------------------------------------------------------0-------------------|
E|-------------------------------3---------------0-----------------------------------|

e|-1-------1---0h1-0---------0-------------3-0---------------------------------------|
B|-----3-----3-----3-3---3-----1---3-3---3-----3---3---------------------------------|
G|---2---2-----2-------0---0-----0-----0---0-----0-----------------------------------|
D|-0---------------------------------------------------------------------------------|
A|-----------------------------------3-----------------------------------------------|
E|-------------------3---------------------------------------------------------------|

2nd part
e|---------1-----3-3-----5-5-----------5/7---7-------7-----8-8-----------------------|
B|-----1-----1---1-----1-----0---0-----0-------0---5-----0-----0---0-----------------|
G|---3---3-----3-----2---------0-----0-----0-----0-----0---0-----0-------------------|
D|-----------------3-------3---------------------------------------------------------|
A|-3-------------------------------------------------0-------------------------------|
E|---------------------------------0-------------------------------------------------|

e|-------0-0-----------0-1-------1---0h1-0---------0---------------0----------------------|
B|-----2-----2---2-1-3-------3-----3-----3-3---3-----1---3-3---3-1-1-1---1----------------|
G|---0---0-----0-----------2---2-----2-------0---0-----0-----0---0-----0------------------|
D|-----------------------0----------------------------------------------------------------|
A|-0-------------------------------------------------------3------------------------------|
E|-----------------------------------------3----------------------------------------------|


[Coda]

e|----------0-----------------0-----------3---1-------------0-0--------------|
B|------1-----1h3---1-----1-----1---1-----1-----1---3-3---3-----3---1--------|
G|----0---0-------0-----2---2-----2-----0---0-----0-----2---2-----2----------|
D|----------------------------------------------------0----------------------|
A|--2-----------------0------------------------------------------------------|
E|------------------------------------3--------------------------------------|

e|---------0-----------------------0-----------------0-----------------------|
B|-----1-----1h3-1-0h1---------3-----3---3---------3-------------------------|
G|---0---0-------------2p---0---0-----0---------0----------------------------|
D|---------------------------------------------2-----------------------------|
A|-------------------------3-----------------3-------------------------------|
E|-3-------------------------------------------------------------------------|
            
Submit corrections


        Kailangan Koy Ikaw  lessons Hard to play? Try these video lessons and learn fast Kailangan Koy Ikaw  lessons
        
↑ Back to top | Tablatures and chords for acoustic guitar and electric guitar, ukulele, drums are parodies/interpretations of the original songs. You may use it for private study, scholarship, research or language learning purposes only