» » »

Regine Velasquez - Ikaw Tabs

Artists:  A B C D E F G H I J K L M N O P Q R S T U V W X Y Z # 

Ikaw Tabs

(ver. 1) Click to play this song!
Regine Velasquez
 Rating:
3.4/5 (27 votes)

 Ikaw lessons Tabs too difficult? Try these video lessons and learn fast
 
                
E|-----3--------3-----------1--1--0--1--3--0----------------------1--------1--|
B|-----1-----------1--------1-----------------------1-------------1--1--------|
G|--0--------0--------0-----2--------------------0-----0-------0--2-----2-----|
D|--------2--------------2--3-----------------2-----------0h2-----3-----------|
A|-----3-----------------------------------3----------------------------------|
E|----------------------------------------------------------------------------|
C  F              C       F
Ikaw ang bigay ng Maykapal


E|-----3/5--3-----------3-----------1--1--0-----3/5--3--------------------------|
B|-------------------1-----1--------1--------3-------------------0-----------0--|
G|--2-------------0-----------0-----2-------------------------0-----0--------2--|
D|-------------2-----------------2--3----------------------2-----------2-----2--|
A|----------3-------------------------------------------2-----------------2--0--|
E|---------------------------------------------------0--------------------------|
C    F           Em  Am
Tugon sa aking dasal


E|-----5--------1----------------------3-----------------3--------------------0--|
B|--1--------1-----1----------------------6--5--3-----------------0-----------1--|
G|--------2-----------2----------------------------6--5--------------0--------2--|
D|----------------------------------5--------------------------2--------2-----2--|
A|-------------------------------5--------------------------2--------------2-----|
E|-----1-----------------1--1/3--------------------------0-----------------------|
 F   G                Em   Am
Upang sa lahat ng panahon


E|--0--------------1-----------------------1--0-----------------------------3--|
B|-----3--1--0-----------------1-----------1-----3--1--0--1--3--3-----------3--|
G|--------------2-----------2-----2--------1-----------------------------4--4--|
D|-----------------------3-----------3-----3--------------------------5--------|
A|--------------------3-----------------3--3-----------------------5-----------|
E|-----------------1-----------------------1--------------------3--------------|
F                Fm                 G
Bawat pagkakataon, Ang ibigin ko'y ikaw


E|-----------0--0--------------0--2-----------3--3--------------|
B|--3-----------------------4--------------------------------1--|
G|--------0--------------4--------------------------------2-----|
D|-----2--------------4--------------------2-----------2--------|
A|--3--------------2--------------------2-----------0-----------|
E|-----------------------------------0--------------------------|
C                   B                  Em        Am
Ang lahat ng aking galaw


E|--5--7--7--------3--------------------8---8--10--10--------7-------------------8---|
B|--------------3-----3-----------------8-----------------8-----8----------------8---|
G|-----------4-----------4--------------9--------------7-----------7-------------9---|
D|--------------------------------------10-----------------------------------10--10--|
A|----------------------------------10-------------10--------------------10----------|
E|--------3-----------------3--3/8------------------------------------8--------------|
       G C    G   C
Ang sanhi ay ikaw


E|--8--12--10--8-------------------8--7------8-----------------------------------|
B|----------------8----------------------10-------------8--8---------------------|
G|-------------------9---------10--------------------------------------------10--|
D|-------------------------10-----------------------10------------10-----10------|
A|----------------------8-----------------------10------------10------8----------|
E|-----8-------------------------------------8-----------------------------------|
     C  F             C       F
Kung may bukas mang tinatanaw


E|-----------------------------------------------1--0-----3/5--3-----------------------0--|
B|--10--8------8-------------8-------------------1-----3-------------------0-----------0--|
G|---------10-------------9-----9-------------2-------------------------0-----0--------2--|
D|--------------------10-----------10------3-------------------------2-----------2-----2--|
A|----------------10-------------------10-------------------------2-----------------2--0--|
E|-------------8-----------------------------------------------0--------------------------|
  C  F           Em  Am
Dahil may isang ikaw


E|-----5--------1-----0--|
B|--1--------1-----1--0--|
G|--------2-----------1--|
D|--------------------0--|
A|--------------------2--|
E|-----1--------------0--|
   F    E7
Kulang


E|--7--5--4-----7--8--8--8---|
B|-----------5-----------9---|
G|-----------------------10--|
D|-----------------------10--|
A|--------------0--------8---|
E|---------------------------|
             Am        Fm
ang magpakailan pa man


E|--------------8--7--5--3--1--0--------|
B|--------------------------------3-----|
G|-----------5-----------------------2--|
D|--------7--------------0--------------|
A|-----7--------------------------------|
E|--5-----------------------------------|
Am           Dm
Upang bawat sandali ay...


E|--------------8--7--5--3--1--0--------|
B|--------------------------------3-----|
G|-----------5-----------------------2--|
D|--------7--------------0--------------|
A|-----7--------------------------------|
E|--5-----------------------------------|
Am              Dm
Upang muli't muli ay...


E|--------------8--7--5--3--------10--7--8-------------8--1--3--0--|
B|-----------------------------------------------------8--1--3--1--|
G|-----------5--------------------------------------9--9--2--4--0--|
D|--------7--------------------5----------------10--------3--5--2--|
A|-----7--------------------5-----10--------10------------3--5--3--|
E|--5--------------------3---------------8----------------1--3--3--|
Am      G       C   F-G-C
Ang mahalin ay ikaw            
Submit corrections


        Ikaw lessons Hard to play? Try these video lessons and learn fast Ikaw lessons
        
↑ Back to top | Tablatures and chords for acoustic guitar and electric guitar, ukulele, drums are parodies/interpretations of the original songs. You may use it for private study, scholarship, research or language learning purposes only