» » »

Redgum - I Was Only Nineteen Bass

Artists:  A B C D E F G H I J K L M N O P Q R S T U V W X Y Z # 

I Was Only Nineteen Bass

(ver. 1) Click to play this song!
Redgum
 Rating:
4/5 (5 votes)

 I Was Only Nineteen lessons Tabs too difficult? Try these video lessons and learn fast
 
                G|------------------------------------------------------|
D|------------------------------------------------------|
A|-0---3-------5---0-------0---0-0----------------------| x 2
E|---------3-----------3--------------------------------|

G|------------------------------------------------------|
D|------------------------------------------------------|
A|-7-7-7---5---0---7-7-7---5-5---0----------------------|
E|------------------------------------------------------|

G|------------------------------------------------------|
D|-4----------------------------------------------------|
A|-----7---5---0----------------------5---5-5---5---5-5-|
E|-----------------0---0-0---0---0-0--------------------|

G|------------------------------------------------------|
D|------------------------------------------------------|
A|-0---3-------5---0-------0---0-0----------------------| x 2
E|---------3-----------3--------------------------------|

G|------------------------------------------------------|
D|------------------------------------------------------|
A|-7-7-7---5---0---7-7-7---5-----0----------------------|
E|------------------------------------------------------|

G|------------------------------------------------------|
D|-4-4--------------------------------------------------|
A|-----7---5---0----------------------5---5-5---5---5-5-|
E|-----------------0---0-0---0---0-0--------------------|

G|-------------------------------------------------------|
D|--------------5----------------------------------------|
A|-0-0--0h2h3-------5---0-------0---0--------------------|
E|--------------------------3----------------------------|

G|------------------------------------------------------|
D|------------------------------------------------------|
A|-0---3-------5---0-------0---0-0----------------------|
E|---------3-----------3--------------------------------|

G|------------------------------------------------------|
D|------------------------------------------------------|
A|-7-7-7---5---0---7-7-7---5-5---0----------------------|
E|------------------------------------------------------|

G|------------------------------------------------------|
D|-4----------------------------------------------------|
A|-----7---5---0----------------------5---5-5---5---5-5-|
E|-----------------0---0-0---0---0-0--------------------|

G|------------------------------------------------------|
D|------------------------------------------------------|
A|-7-7-7---5---0---7-7-7---5-5---0----------------------|
E|------------------------------------------------------|


G|------------------------------------------------------|
D|-4----------------------------------------------------|
A|-----7---5---0----------------------5---5-5---5---5-5-|
E|-----------------0---0-0---0---0-0--------------------|

G|-------------------------------------------------------|
D|--------------5----------------------------------------|
A|-0-0--0h2h3-------5---0-------0---0--------------------|
E|--------------------------3----------------------------|
            
Submit corrections


        I Was Only Nineteen lessons Hard to play? Try these video lessons and learn fast I Was Only Nineteen lessons
        
↑ Back to top | Tablatures and chords for acoustic guitar and electric guitar, ukulele, drums are parodies/interpretations of the original songs. You may use it for private study, scholarship, research or language learning purposes only