Home » R » Red Guitar »

Red Guitar - Shadows Tabs

Artists:  A B C D E F G H I J K L M N O P Q R S T U V W X Y Z # 

Shadows Tabs

(ver. 1) Click to play this song!
Red Guitar
Red
Tuning Bb F Bb EB G C

Legend
h-hammer on                       x-muted strum

Intro: Guitar 1 (Low Volume, Distorted with Fuzz) PLAY 1 TIME
 C|---------------------------------------------------------------------------|
 G|---------------------------------------------------------------------------|
Eb|---------------------------------------------------------------------------|
Bb|---------------------------------------------------------------------------|
 F|---------------------------------------------------------------------------|
Bb|----------------------------------------1-0-1/3-0----1-0--1/4-0----1-0-1-3-|

Intro: Guitars 1 & 2 (Distorted) PLAY 2 TIMES
 C|---------------------------------------------------------------------------|
 G|---------------------------------------------------------------------------|
Eb|---------------------------------------------------------------------------|
Bb|---------------------------------------------------------------------------|
 F|---------------------------------------------------------------------------|
Bb|--1-0-1/3-0----1-0--1/4-0----1-0-1-3----1-0-1/3-0----1-0--1/4-0----1-0-1-3-|

Verse 1: Guitar 2 (Distorted, Crescendo each note) PLAY 2 TIMES
 C|--18----------------------------------------18------------17---------------|
 G|----------------18------------20-------------------------------------------|
Eb|---------------------------------------------------------------------------|
Bb|---------------------------------------------------------------------------|
 F|---------------------------------------------------------------------------|
Bb|---------------------------------------------------------------------------|

Verse 1: Guitar 1 (Distorted & Palm Muted)
 C|---------------------------------------------------------------------------|
 G|---------------------------------------------------------------------------|
Eb|---------------------------------------------------------------------------|
Bb|--3h5555555-3h5555555-3h5555555-3h5555555-3h5555555-3h5555555-3h5555555----|
 F|---------------------------------------------------------------------------|
Bb|---------------------------------------------------------------------------|
     pmpmpmpmpmpmpmpmpmpmpmpmpmpmpmpmpmpmpmpmpmpmpmpmpmpmpmpmpmpmpmpmpmpmpm   |
                                                                              |
Verse 1: Guitar 2 (Distorted, Crescendo each note)                            |
 C|--18----------------------------------------------------------18-----------|
 G|----------------------18------------------20-------------------------------|
Eb|---------------------------------------------------------------------------|
Bb|---------------------------------------------------------------------------|
 F|---------------------------------------------------------------------------|
Bb|---------------------------------------------------------------------------|

Verse 1: Guitar 1 (Distorted & Palm Muted)
 C|---------------------------------------------------------------------------|
 G|---------------------------------------------------------------------------|
Eb|---------------------------------------------------------------------------|
Bb|--3h5555555----8-----------------------------------------------------------|
 F|---------------8-----------------------------------------------------------|
Bb|---------------8-----------------------------------------------------------|
     pmpmpmpmpm                                                               |
                                                                              |
Verse 1: Guitar 2 (Distorted, Crescendo each note)                            |
 C|--17-----------------------------------------------------------------------|
 G|---------------------------------------------------------------------------|
Eb|---------------------------------------------------------------------------|
Bb|---------------------------------------------------------------------------|
 F|---------------------------------------------------------------------------|
Bb|---------------------------------------------------------------------------|

Chorus: Guitar 1 (Distorted)
 C|---------------------------------------------------------------------------|
 G|---------------------------------------------------------------------------|
Eb|---------------------------------------------------------------------------|
Bb|--8-8-8-8-8-8-8-8-8-8-8-8-8-8-8-8----7-7-7-7-7-7-7-7-7-7-7-7-7-7-7-7-------|
 F|--8-8-8-8-8-8-8-8-8-8-8-8-8-8-8-8----8-8-8-8-8-8-8-8-8-8-8-8-8-8-8-8-------|
Bb|--8-8-8-8-8-8-8-8-8-8-8-8-8-8-8-8----7-7-7-7-7-7-7-7-7-7-7-7-7-7-7-7-------|

Chorus: Guitar 1 (Distorted)
 C|---------------------------------------------------------------------------|
 G|---------------------------------------------------------------------------|
Eb|--7-7-7-7-7-7-7-7-7-7-7-7-7-7-7-7------------------------------------------|
Bb|--5-5-5-5-5-5-5-5-5-5-5-5-5-5-5-5----1-1-1-1-1-1-1-1-1-1-1-1-1-1-1-1-x--3--|
 F|--5-5-5-5-5-5-5-5-5-5-5-5-5-5-5-5----1-1-1-1-1-1-1-1-1-1-1-1-1-1-1-1-x--0--|
Bb|--5-5-5-5-5-5-5-5-5-5-5-5-5-5-5-5----1-1-1-1-1-1-1-1-1-1-1-1-1-1-1-1-x-----|

Chorus: Guitar 1 (Distorted)
 C|---------------------------------------------------------------------------|
 G|---------------------------------------------------------------------------|
Eb|---------------------------------------------------------------------------|
Bb|--8-8-8-8-8-8-8-8-8-8-8-8-8-8-8-8----7-7-7-7-7-7-7-7-7-7-7-7-7-7-7-7-------|
 F|--8-8-8-8-8-8-8-8-8-8-8-8-8-8-8-8----8-8-8-8-8-8-8-8-8-8-8-8-8-8-8-8-------|
Bb|--8-8-8-8-8-8-8-8-8-8-8-8-8-8-8-8----7-7-7-7-7-7-7-7-7-7-7-7-7-7-7-7-------|

Chorus: Guitar 1 (Distorted)
 C|---------------------------------------------------------------------------|
 G|---------------------------------------------------------------------------|
Eb|--7-7-7-7-7-7-7-7-7-7-7-7-7-7-7-7------------------------------------------|
Bb|--5-5-5-5-5-5-5-5-5-5-5-5-5-5-5-5----1-1-1-1-1-1-1-1-1-1-1-1-1-1-1-1-------|
 F|--5-5-5-5-5-5-5-5-5-5-5-5-5-5-5-5----1-1-1-1-1-1-1-1-1-1-1-1-1-1-1-1-------|
Bb|--5-5-5-5-5-5-5-5-5-5-5-5-5-5-5-5----1-1-1-1-1-1-1-1-1-1-1-1-1-1-1-1-------|


Post Chorus: Guitars 1 & 2 (Distorted) PLAY 2 TIMES
 C|---------------------------------------------------------------------------|
 G|---------------------------------------------------------------------------|
Eb|---------------------------------------------------------------------------|
Bb|---------------------------------------------------------------------------|
 F|---------------------------------------------------------------------------|
Bb|--1-0-1/3-0----1-0--1/4-0----1-0-1-3----1-0-1/3-0----1-0--1/4-0----1-0-1-3-|

Verse 2: Guitar 2 (Distorted, Crescendo each note) PLAY 1 TIME
 C|--18----------------------------------------18------------17---------------|
 G|----------------18------------20-------------------------------------------|
Eb|---------------------------------------------------------------------------|
Bb|---------------------------------------------------------------------------|
 F|---------------------------------------------------------------------------|
Bb|---------------------------------------------------------------------------|

Verse 2: Guitar 1 (Distorted & Palm Muted)
 C|---------------------------------------------------------------------------|
 G|---------------------------------------------------------------------------|
Eb|---------------------------------------------------------------------------|
Bb|--3h5555555-3h5555555-3h5555555-3h5555555-3h5555555-3h5555555-3h5555555----|
 F|---------------------------------------------------------------------------|
Bb|---------------------------------------------------------------------------|
     pmpmpmpmpmpmpmpmpmpmpmpmpmpmpmpmpmpmpmpmpmpmpmpmpmpmpmpmpmpmpmpmpmpmpm   |
                                                                              |
Verse 2: Guitar 2 (Distorted, Crescendo each note)                            |
 C|--18----------------------------------------------------------18-----------|
 G|----------------------18------------------20-------------------------------|
Eb|---------------------------------------------------------------------------|
Bb|---------------------------------------------------------------------------|
 F|---------------------------------------------------------------------------|
Bb|---------------------------------------------------------------------------|

Verse 2: Guitar 1 (Distorted & Palm Muted)
 C|---------------------------------------------------------------------------|
 G|---------------------------------------------------------------------------|
Eb|---------------------------------------------------------------------------|
Bb|--3h5555555----8-----------------------------------------------------------|
 F|---------------8-----------------------------------------------------------|
Bb|---------------8-----------------------------------------------------------|
     pmpmpmpmpm                                                               |
                                                                              |
Verse 2: Guitar 2 (Distorted, Crescendo each note)                            |
 C|--17-----------------------------------------------------------------------|
 G|---------------------------------------------------------------------------|
Eb|---------------------------------------------------------------------------|
Bb|---------------------------------------------------------------------------|
 F|---------------------------------------------------------------------------|
Bb|---------------------------------------------------------------------------|

Chorus: Guitar 1 (Distorted)
 C|---------------------------------------------------------------------------|
 G|---------------------------------------------------------------------------|
Eb|---------------------------------------------------------------------------|
Bb|--8-8-8-8-8-8-8-8-8-8-8-8-8-8-8-8----7-7-7-7-7-7-7-7-7-7-7-7-7-7-7-7-------|
 F|--8-8-8-8-8-8-8-8-8-8-8-8-8-8-8-8----8-8-8-8-8-8-8-8-8-8-8-8-8-8-8-8-------|
Bb|--8-8-8-8-8-8-8-8-8-8-8-8-8-8-8-8----7-7-7-7-7-7-7-7-7-7-7-7-7-7-7-7-------|

Chorus: Guitar 1 (Distorted)
 C|---------------------------------------------------------------------------|
 G|---------------------------------------------------------------------------|
Eb|--7-7-7-7-7-7-7-7-7-7-7-7-7-7-7-7------------------------------------------|
Bb|--5-5-5-5-5-5-5-5-5-5-5-5-5-5-5-5----1-1-1-1-1-1-1-1-1-1-1-1-1-1-1-1-x--3--|
 F|--5-5-5-5-5-5-5-5-5-5-5-5-5-5-5-5----1-1-1-1-1-1-1-1-1-1-1-1-1-1-1-1-x--0--|
Bb|--5-5-5-5-5-5-5-5-5-5-5-5-5-5-5-5----1-1-1-1-1-1-1-1-1-1-1-1-1-1-1-1-x-----|

Chorus: Guitar 1 (Distorted)
 C|---------------------------------------------------------------------------|
 G|---------------------------------------------------------------------------|
Eb|---------------------------------------------------------------------------|
Bb|--8-8-8-8-8-8-8-8-8-8-8-8-8-8-8-8----7-7-7-7-7-7-7-7-7-7-7-7-7-7-7-7-------|
 F|--8-8-8-8-8-8-8-8-8-8-8-8-8-8-8-8----8-8-8-8-8-8-8-8-8-8-8-8-8-8-8-8-------|
Bb|--8-8-8-8-8-8-8-8-8-8-8-8-8-8-8-8----7-7-7-7-7-7-7-7-7-7-7-7-7-7-7-7-------|

Chorus: Guitar 1 (Distorted)
 C|---------------------------------------------------------------------------|
 G|---------------------------------------------------------------------------|
Eb|--7-7-7-7-7-7-7-7-7-7-7-7-7-7-7-7------------------------------------------|
Bb|--5-5-5-5-5-5-5-5-5-5-5-5-5-5-5-5----1-1-1-1-1-1-1-1-1-1-1-1-1-1-1-1-------|
 F|--5-5-5-5-5-5-5-5-5-5-5-5-5-5-5-5----1-1-1-1-1-1-1-1-1-1-1-1-1-1-1-1-------|
Bb|--5-5-5-5-5-5-5-5-5-5-5-5-5-5-5-5----1-1-1-1-1-1-1-1-1-1-1-1-1-1-1-1-------|

Bridge: Guitars 1 & 2 (Distorted)
 C|---------------------------------------------------------------------------|
 G|---------------------------------------------------------------------------|
Eb|---------------------------------------------------------------------------|
Bb|----------------------------x--13------------------------------------------|
 F|----------------------------x--13------------------------------------------|
Bb|--0-0-0-0---13-12-0----0--0-x--13----0-0-0-0---13-12-0----0-0-0---13-12-0--|
          Guitar 2 comes in here--^

Bridge: Guitars 1 & 2 (Distorted)
 C|---------------------------------------------------------------------------|
 G|---------------------------------------------------------------------------|
Eb|--------------------------5------8-----------------------------------------|
Bb|-----------------------x--x---x--x-----------------------------------------|
 F|-----------------------x--3---x--6-----------------------------------------|
Bb|--0-0-0-0---13-12-0----x------x------0-0-0-0---13-12-0----0-0-0---13-12-0--|

Bridge: Guitars 1 & 2 (Distorted)
 C|---------------------------------------------------------------------------|
 G|---------------------------------------------------------------------------|
Eb|--------------------------5------888---------------------------------------|
Bb|-----------------------x--x---x--xxx---------------------------------------|
 F|-----------------------x--3---x--666---------------------------------------|
Bb|--0-0-0-0---13-12-0----x------x------0-0-0-0---13-12-0----0-0-0---13-12-0--|

Bridge: Guitars 1 & 2 (Distorted)
 C|---------------------------------------------------------------------------|
 G|---------------------------------------------------------------------------|
Eb|--------------------------5------8-----------------------------------------|
Bb|-----------------------x--x---x--x-----------------------------------------|
 F|-----------------------x--3---x--6-----------------------------------------|
Bb|--0-0-0-0---13-12-0----x------x------0-0-0-0---13-12-0----0-0-0---13-12-0--|

Bridge: Guitar 1 (Distorted)
 C|---------------------------------------------------------------------------|
 G|---------------------------------------------------------------------------|
Eb|--------------------------5------888---------------------------------------|
Bb|-----------------------x--x---x--xxx---------------------------------------|
 F|-----------------------x--3---x--666---------------------------------------|
Bb|--0-0-0-0---13-12-0----x------x--------------------------------------------|
                                                                              |
Bridge: Guitar 2 (Distorted)                                                  |
 C|---------------------------------------------------------------------------|
 G|--------------------------------------18--------------------------16-------|
Eb|--------------------------5------888---------------------------------------|
Bb|-----------------------x--x---x--xxx---------------------------------------|
 F|-----------------------x--3---x--666---------------------------------------|
Bb|--0-0-0-0---13-12-0----x------x--------------------------------------------|
                  Crescendo starts here--^

Bridge: Guitar 2 (Distorted, Crescendo each note)
 C|---------------------------------------------------------------------------|
 G|--15------------------11------11------/--15--------------15------\--11-----|
Eb|---------------------------------------------------------------------------|
Bb|---------------------------------------------------------------------------|
 F|---------------------------------------------------------------------------|
Bb|---------------------------------------------------------------------------|

Chorus: Guitar 1 (Distorted)
 C|---------------------------------------------------------------------------|
 G|---------------------------------------------------------------------------|
Eb|---------------------------------------------------------------------------|
Bb|--8-8-8-8-8-8-8-8-8-8-8-8-8-8-8-8----7-7-7-7-7-7-7-7-7-7-7-7-7-7-7-7-------|
 F|--8-8-8-8-8-8-8-8-8-8-8-8-8-8-8-8----8-8-8-8-8-8-8-8-8-8-8-8-8-8-8-8-------|
Bb|--8-8-8-8-8-8-8-8-8-8-8-8-8-8-8-8----7-7-7-7-7-7-7-7-7-7-7-7-7-7-7-7-------|

Chorus: Guitar 1 (Distorted)
 C|---------------------------------------------------------------------------|
 G|---------------------------------------------------------------------------|
Eb|--7-7-7-7-7-7-7-7-7-7-7-7-7-7-7-7------------------------------------------|
Bb|--5-5-5-5-5-5-5-5-5-5-5-5-5-5-5-5----1-1-1-1-1-1-1-1-1-1-1-1-1-1-1-1-x--3--|
 F|--5-5-5-5-5-5-5-5-5-5-5-5-5-5-5-5----1-1-1-1-1-1-1-1-1-1-1-1-1-1-1-1-x--0--|
Bb|--5-5-5-5-5-5-5-5-5-5-5-5-5-5-5-5----1-1-1-1-1-1-1-1-1-1-1-1-1-1-1-1-x-----|

Chorus: Guitar 1 (Distorted)
 C|---------------------------------------------------------------------------|
 G|---------------------------------------------------------------------------|
Eb|---------------------------------------------------------------------------|
Bb|--8-8-8-8-8-8-8-8-8-8-8-8-8-8-8-8----7-7-7-7-7-7-7-7-7-7-7-7-7-7-7-7-------|
 F|--8-8-8-8-8-8-8-8-8-8-8-8-8-8-8-8----8-8-8-8-8-8-8-8-8-8-8-8-8-8-8-8-------|
Bb|--8-8-8-8-8-8-8-8-8-8-8-8-8-8-8-8----7-7-7-7-7-7-7-7-7-7-7-7-7-7-7-7-------|

Chorus: Guitar 1 (Distorted)
 C|---------------------------------------------------------------------------|
 G|---------------------------------------------------------------------------|
Eb|--7-7-7-7-7-7-7-7-7-7-7-7-7-7-7-7------------------------------------------|
Bb|--5-5-5-5-5-5-5-5-5-5-5-5-5-5-5-5----1-1-1-1-1-1-1-1-1-1-1-1-1-1-1-1-------|
 F|--5-5-5-5-5-5-5-5-5-5-5-5-5-5-5-5----1-1-1-1-1-1-1-1-1-1-1-1-1-1-1-1-------|
Bb|--5-5-5-5-5-5-5-5-5-5-5-5-5-5-5-5----1-1-1-1-1-1-1-1-1-1-1-1-1-1-1-1-------|

Chorus: Guitars 1 (Distorted)
 C|---------------------------------------------------------------------------|
 G|---------------------------------------------------------------------------|
Eb|---------------------------------------------------------------------------|
Bb|--1-------------------------------x--3-------------------------------------|
 F|--1-------------------------------x--0-------------------------------------|
Bb|--1-------------------------------x----------------------------------------|

Outro: Guitars 1 & 2 (Distorted) PLAY 2 TIMES
 C|---------------------------------------------------------------------------|
 G|---------------------------------------------------------------------------|
Eb|---------------------------------------------------------------------------|
Bb|---------------------------------------------------------------------------|
 F|---------------------------------------------------------------------------|
Bb|--1-0-1/3-0----1-0--1/4-0----1-0-1-3----1-0-1/3-0----1-0--1/4-0----1-0-1-3-|

Finished!
            
Submit corrections

↑ Back to top | Tablatures and chords for acoustic guitar and electric guitar, ukulele, drums are parodies/interpretations of the original songs. You may use it for private study, scholarship, research or language learning purposes only