Home » R » Red Guitar »

Red Guitar - Mystery Of You Tabs

Artists:  A B C D E F G H I J K L M N O P Q R S T U V W X Y Z # 

Mystery Of You Tabs

(ver. 1) Click to play this song!
Red Guitar

Drop Bb Tuning

Key:
Palm Mute   *
Slide            s
Dead Note  x

Hey all. Please rate, comment, correct, and make sure you check out my tabs
for "Let Go", "Gave It All Away" and "Forever", and do the same for them.

26.5.09 UPDATE: I've tweaked the main riff a bit.

 Intro (0:06)
 c|----------------------|------|
 G|----------------------|------|
Eb|----------------------|------|
Bb|--5s77777-5s777777888-|-5s7--|
 F|--3s55555-3s555555666-|-3s5--|
Bb|----------------------|------|
     * ***** * *********   * *

 c|------------------------====----|
 G|------------------------=x4=----|
Eb|--------7---------10----====----|
Bb|--------x---------x-------------|
 F|--------5---------8-------------|
Bb|--3-2-0----0-8-10----0-3-0-3-5--|

  Verse (0:25)
 c|----|-----------------|---|---------------|----------|
 G|----|-----------------|---|---------------|----------|
Eb|----|-----------------|---|---------------|-5-5-5-5--|
Bb|--0-|----xx-3-3-3-3-2-|-0-|----xx-3-3-3-3-|-5-5-5-5--|
 F|--0-|----xx-3-3-3-3-2-|-0-|----xx-3-3-3-3-|-3-3-3-3--|
Bb|--0-|----xx-3-3-3-3-2-|-0-|----xx-3-3-3-3-|----------|

  Chorus (0:48)
 c|----------|---------====--|
 G|----------|---------=x4=--|
Eb|------3-3-|-----5-5-====--|
Bb|--0-0-3-3-|-3-3-5-5-------|
 F|--0-0-1-1-|-3-3-3-3-------|
Bb|--0-0-----|-3-3-----------|

  Post-chorus (1:13)
 c|------------------------====----|
 G|------------------------=x4=----|
Eb|--------7---------10----====----|
Bb|--------x---------x-------------|
 F|--------5---------8-------------|
Bb|--3-2-0----0-8-10----0-3-0-3-5--|

  Repeat Verse (1:26)

  Bridge (2:14)
 c|----------|---------====--|
 G|----------|---------=x2=--|
Eb|--3-3-3-3-|-2-2-2-2-====--|
Bb|--3-3-3-3-|-2-2-2-2-------|
 F|--1-1-1-1-|-0-0-0-0-------|
Bb|----------|---------------|

  Violins, then

 c|-------|---------|---------====--|
 G|-------|---------|---------=x4=--|
Eb|-------|-----3-3-|-----5-5-====--|
Bb|--xxxx-|-0-0-3-3-|-3-3-5-5-------|
 F|--xxxx-|-0-0-1-1-|-3-3-3-3-------|
Bb|--xxxx-|-0-0-----|-3-3-----------|

  Outro (3:18)
 c|-----------------------====-------|
 G|-----------------------=x4=-------|
Eb|--------7---------10----====------|
Bb|--------x---------x---------------|
 F|--------5---------8---------------|
Bb|--3-2-0----0-8-10----0-3-0-3-5----|

 c|--------|
 G|--------|
Eb|--------|
Bb|--0000--|
 F|--0000--|
Bb|--0000--|
            
Submit corrections

↑ Back to top | Tablatures and chords for acoustic guitar and electric guitar, ukulele, drums are parodies/interpretations of the original songs. You may use it for private study, scholarship, research or language learning purposes only