Home » R » Red Guitar »

Red Guitar - Forever Tabs

Artists:  A B C D E F G H I J K L M N O P Q R S T U V W X Y Z # 

Forever Tabs

(ver. 1) Click to play this song!
Red Guitar

Drop B tuning


 Intro: guitar 1
C#|----------------------------------------------------|
G#|----------------------------------------------------|
 E|----------------------------------------------------|
 B|-2-2-2-5-5-5-2-2-2-4-4-4-0-0-0----------------------|
F#|-2-2-2-5-5-5-2-2-2-4-4-4-0-0-0----------------------|
 B|-2-2-2-5-5-5-2-2-2-4-4-4-0-0-0----------------------|

C#|----------------------------------------------------|
G#|----------------------------------------------------|
 E|----------------------------------------------------|
 B|-2-2-2-5-5-5-2-2-2-4-4-4-12-12-12-------------------|
F#|-2-2-2-5-5-5-2-2-2-4-4-4-10-10-10-------------------|
 B|-2-2-2-5-5-5-2-2-2-4-4-4-10-10-10-------------------|

C#|----------------------------------------------------|
G#|----------------------------------------------------|
 E|----------------------------------------------------|
 B|-2-2-2-5-5-5-2-2-2-4-4-4-0-0-0----------------------|
F#|-2-2-2-5-5-5-2-2-2-4-4-4-0-0-0----------------------|
 B|-2-2-2-5-5-5-2-2-2-4-4-4-0-0-0----------------------|

C#|----------------------------------------------------|
G#|----------------------------------------------------|
 E|------------------------------5-5-------------------|
 B|-12-12-12-12-12-12------------5-5-------------------|
F#|-10-10-10-10-10-10------------3-3-------------------|
 B|-10-10-10-10-10-10--2-5-2-4-0-----------------------|

 verse: silent

 Pre Chorus:
C#|----------------------------------------------------|
G#|----------------------------------------------------|
 E|----------------------------------------------------|
 B|-12-12-12-0-0-0-2-2-2-4-4-5-5-5-12-12-12-0-0-0------|
F#|-10-10-10-0-0-0-2-2-2-5-5-5-5-5-10-10-10-0-0-0------|
 B|-10-10-10-0-0-0-2-2-2-4-4-5-5-5-10-10-10-0-0-0------|

 Chorus:
C#|----------------------------------------------------|
G#|----------------------------------------------------|
 E|-2-2-2-5-5-5--------------2-2-2-5-5-5-------4-4-4---|
 B|-2-2-2-5-5-5-5-5-5-0-0-0--2-2-2-5-5-5-5-5-5-4-4-4---|
F#|-0-0-0-3-3-3-5-5-5-0-0-0--0-0-0-3-3-3-5-5-5-2-2-2---|
 B|-------------5-5-5-0-0-0--------------5-5-5---------| 2x

 Post Chorus guitar 1: Intro

 Guitar 2:
C#|-12-12-12-------------------------------------------|
G#|---------12-12-12-13-13-12-12-10-10-12-12-----------|
 E|----------------------------------------------------|
 B|----------------------------------------------------|
F#|----------------------------------------------------|
 B|----------------------------------------------------|

C#|-12-12-12-------------------------------------------|
G#|---------12-12-12-13-13-12-12-12-12-12-12-----------|
 E|----------------------------------------------------|
 B|----------------------------------------------------|
F#|----------------------------------------------------|
 B|----------------------------------------------------|

C#|-12-12-12-------------------------------------------|
G#|---------12-12-12-13-13-12-12-10-10-12-12-----------|
 E|----------------------------------------------------|
 B|----------------------------------------------------|
F#|----------------------------------------------------|
 B|----------------------------------------------------|

C#|-12-12-12--------------------------12---------------|
G#|---------12-12-12-13-13-12-12-12-12--12-12----------|
 E|----------------------------------------------------|
 B|----------------------------------------------------|
F#|----------------------------------------------------|
 B|----------------------------------------------------|

 Verse 2: guitar 1
C#|---------------------------------------------------------------|
G#|---------------------------------------------------------------|
 E|---------------------------------------------------------------|
 B|-2-2-2-4-4-5-5------4-4-5-5-----4-4-4-5-5-5------4-4-4-5-5-5---|
F#|---------------3-3-3------------------------5-5-5--------------|
 B|---------------------------5-5-5-------------------------------|
   ***************************************************************

 Pre Chorus:
C#|----------------------------------------------------|
G#|----------------------------------------------------|
 E|----------------------------------------------------|
 B|-12-12-12-0-0-0-2-2-2-4-4-5-5-5-12-12-12-0-0-0------|
F#|-10-10-10-0-0-0-2-2-2-5-5-5-5-5-10-10-10-0-0-0------|
 B|-10-10-10-0-0-0-2-2-2-4-4-5-5-5-10-10-10-0-0-0------|

 Chorus:
C#|----------------------------------------------------|
G#|----------------------------------------------------|
 E|-2-2-2-5-5-5--------------2-2-2-5-5-5-------4-4-4---|
 B|-2-2-2-5-5-5-5-5-5-0-0-0--2-2-2-5-5-5-5-5-5-4-4-4---|
F#|-0-0-0-3-3-3-5-5-5-0-0-0--0-0-0-3-3-3-5-5-5-2-2-2---|
 B|-------------5-5-5-0-0-0--------------5-5-5---------| 2x

 Bridge:
C#|----------------------------------------------------|
G#|----------------------------------------------------|
 E|-5-5-5-5-----------------5-5-5-5---------4-4-4-4----|
 B|-5-5-5-5-5-5-5-5-0-0-0-0-5-5-5-5-5-5-5-5-4-4-4-4----|
F#|-3-3-3-3-5-5-5-5-0-0-0-0-3-3-3-3-5-5-5-5-2-2-2-2----|
 B|---------5-5-5-5-0-0-0-0---------5-5-5-5------------|

C#|----------------------------------------------------|
G#|----------------------------------------------------|
 E|-5-5-5-5-----------------5-5-5-5--4-4-4-4-----------|
 B|-5-5-5-5-5-5-5-5-0-0-0-0-5-5-5-5--4-4-4-4-----------|
F#|-3-3-3-3-5-5-5-5-0-0-0-0-3-3-3-3--2-2-2-2-----------|
 B|---------5-5-5-5-0-0-0-0----------------------------|

Chorus:
C#|----------------------------------------------------|
G#|----------------------------------------------------|
 E|-2-2-2-5-5-5--------------2-2-2-5-5-5-------4-4-4---|
 B|-2-2-2-5-5-5-5-5-5-0-0-0--2-2-2-5-5-5-5-5-5-4-4-4---|
F#|-0-0-0-3-3-3-5-5-5-0-0-0--0-0-0-3-3-3-5-5-5-2-2-2---|
 B|-------------5-5-5-0-0-0--------------5-5-5---------| 2x

Post Chorus guitar 1: Intro

 Guitar 2:
C#|-12-12-12-------------------------------------------|
G#|---------12-12-12-13-13-12-12-10-10-12-12-----------|
 E|----------------------------------------------------|
 B|----------------------------------------------------|
F#|----------------------------------------------------|
 B|----------------------------------------------------|


C#|-12-12-12-------------------------------------------|
G#|---------12-12-12-13-13-12-12-12-12-12-12-----------|
 E|----------------------------------------------------|
 B|----------------------------------------------------|
F#|----------------------------------------------------|
 B|----------------------------------------------------|

C#|-12-12-12-------------------------------------------|
G#|---------12-12-12-13-13-12-12-10-10-12-12-----------|
 E|----------------------------------------------------|
 B|----------------------------------------------------|
F#|----------------------------------------------------|
 B|----------------------------------------------------|

C#|-12-12-12--------------------------12---------------|
G#|---------12-12-12-13-13-12-12-12-12--12-12----------|
 E|----------------------------------------------------|
 B|----------------------------------------------------|
F#|----------------------------------------------------|
 B|----------------------------------------------------|

Feel free to comment, this isnt perfect but i think its pretty close.
            
Submit corrections

↑ Back to top | Tablatures and chords for acoustic guitar and electric guitar, ukulele, drums are parodies/interpretations of the original songs. You may use it for private study, scholarship, research or language learning purposes only