Home » R » Rebelution »

Rebelution - Upper Hand Tabs

Artists:  A B C D E F G H I J K L M N O P Q R S T U V W X Y Z # 

Upper Hand Tabs

(ver. 1) Click to play this song!
Rebelution
[Intro/Bridge]

e|-------5------------7-----------5----|
B|------5-5----------8-8---------6-----|
G|-----5---5--------7---7-------5------|
D|----5-----5------9-----9-----7-------|
A|---7------------7-----------5--------|
E|--5----------------------------------|
    Am7          Em7         Dm7


[Verse/Pre Chorus]

e|--5-----7-----5---|
B|--5-----8-----6---|
G|--5-----7-----5---| x4
D|--5-----9-----7---|
A|--7-----7-----5---|
E|--5---------------|
  Am7    Em7   Dm7
 (x4)   (x4)   (x8)


 [Chorus]

e|--5----------3-------5---|
B|--5----------3-------6---|
G|--5----------4-------5---|
D|--5----------3-------7---| x2
A|--7----------5-------5---|
E|--5----------3-----------|
  Am7         G7      Dm7
 (x6 hits)  (x6 hits)  (x8)

End on Am7


Intro x1
Verse x2
Pre Chorus x2
Chorus x2
Verse x2
Pre Chorus x2
Chorus x2
Intro/Bridge x2
Chorus x4            
Submit corrections

↑ Back to top | Tablatures and chords for acoustic guitar and electric guitar, ukulele, drums are parodies/interpretations of the original songs. You may use it for private study, scholarship, research or language learning purposes only