Home » R » Rebelution »

Rebelution - So High Ukulele

Artists:  A B C D E F G H I J K L M N O P Q R S T U V W X Y Z # 

So High Ukulele

(ver. 1) Click to play this song!
Rebelution
[Intro]
 
A|---------------------------------------------------------------|
E|--3----------------------------------------------6-------------|
C|---------------------------------------------------------------|
G|-----7------------8--7--5--------------10--10--5---------------|
 
A|---------------------------------------------------------------|
E|--3-------------------------------------6----------------------|
C|---------------------------------------------------------------|
G|-----7------------8--7--5------------------5--7----------------|
                                                         s
A|---------------------------------------------------------------|
E|--3-------3--------------------3---------3--------6--6------6--|
C|---------------------------------------------------------------|
G|-----7-------7--7--8--7----5------5---------5--7--------5------|
                                      ~
A|---------------------------------------------------------------|
E|--3-------3--------------------3-------------------------------|
C|---------------------------------------------------------------|
G|-----7-------7--7--8--7----5------5----------------------------|
                      s
A|-------------------3-5----3----3---5-5-3-----------------------|
E|---------------------------------------------------------------|
C|---------------------------------------------------------------|
G|---3---5--3----3-5------3----3---------------------------------|
                      s
A|-------------------3-5----3----3-------------------------------|
E|---------------------------------------------------------------|
C|---------------------------------------------------------------|
G|---3---5--3----3-5------3----3---------------------------------|
                            s       P     H s
A|---------------------------------------------------------------|
E|--------6--5--3------------6-----------------------------------|
C|---------------------------------------------------------------|
G|-----12---------------------------(play twice)-----------------|
            
Submit corrections

↑ Back to top | Tablatures and chords for acoustic guitar and electric guitar, ukulele, drums are parodies/interpretations of the original songs. You may use it for private study, scholarship, research or language learning purposes only