Home » R » Rebelution »

Rebelution - Sky Is The Limit Bass

Artists:  A B C D E F G H I J K L M N O P Q R S T U V W X Y Z # 

Sky Is The Limit Bass

(ver. 1) Click to play this song!
Rebelution

Tuning : EADG

~Intro~
G|----------------------------------------------------------------------------|
D|----------------------------------------------------------------------------|
A|-33-3-33-3-3-3--33-3-33-3-3-3-----------------------------------------------|
E|-------------------------------33-3-33-3-3-3--33-3-33-3-3-3-----------------|

~Play this twice~
G|------------------------------------------------------------------------------|
D|-----5---------5---------5---------5------------------------------------------|
A|-3-3---3--3-3-3--3---3-3---3--3-3-3--3-----5---------5---------5---------5----|
E|--------------------------------------3-3---3--3-3-3--3---3-3---3--3-3-3--3-3-|


G|---------------------------------------------------------------------------|
D|-----5----------5-3---------5----------5-3---------------------------------|
A|-3-3---3--3-3-3-----6---3-3---3--3-3-3-----6-------------------------------|
E|---------------------------------------------------------------------------|


G|---------------------------------------------------------------------------|
D|---------------------------------------------------------------------------|
A|-----5----------5-3---------5----------5-3---------------------------------|
E|-3-3---3--3-3-3-----6---3-3---3--3-3-3-----6-------------------------------|

And the rest of the song pretty much just goes around all of this, and its pretty easy 
to guess after learning these 4 parts.

~~Please rate and comment~~
            
Submit corrections

↑ Back to top | Tablatures and chords for acoustic guitar and electric guitar, ukulele, drums are parodies/interpretations of the original songs. You may use it for private study, scholarship, research or language learning purposes only