Home » R » Rebelution »

Rebelution - Mirage Tabs

Artists:  A B C D E F G H I J K L M N O P Q R S T U V W X Y Z # 

Mirage Tabs

(ver. 1) Click to play this song!
Rebelution
       E       G#m          E      
e|------------------------------------------|
B|------------------------------------------|
G|-----/9-8--4--------------/9-8--4--/8~----|
D|--6----------4/6---6h7p6------------------|
A|------------------------------------------|
E|------------------------------------------|

       E       G#m                        A
e|----------------------------------------5--|
B|----------------------------------------5--|
G|-----/9-8--4--------------/9-8--4--/8~--6--|
D|--6----------4/6---6h7p6----------------7--|
A|----------------------------------------7--|
E|----------------------------------------5--|
 
     E   C#m  G#m
e|---4----4----4---------|
B|---5----5----4---------|
G|---4----6----4---------|
D|---6----6----6---------|
A|---7----4----6---------|
E|-------------4---------|


e|---------------------------------------------------------------------------|
B|---------------------------------------------------------------------------|
G|--9-9-9-9-9-9-9-9-9-9-9-9-9-9-9-9-8-8-8-8-8-8-8-8-8-8-8-8/11-11-11-11------|
D|---------------------------------------------------------------------------|
A|---------------------------------------------------------------------------|
E|---------------------------------------------------------------------------|


[Verse 1]

I was heading somewhere
I can't remember
I thought I saw you out there
But you vanished quick and I thought I lost my mind
I was just thinking
Maybe I'm losing my sight
And I believe it
So many years gone by, think I've lost my mind


[Chorus]

Have I lost my mind?
Think I've lost my mind


[Verse 2]

I was heading nowhere
Just wasting my time
And I don't care
Lately it feels just fine, have I lost my mind?


[Chorus]

Have I lost my mind?
Think I've lost my mind
Have I lost my mind?
Think I've lost my mind
            
Submit corrections

↑ Back to top | Tablatures and chords for acoustic guitar and electric guitar, ukulele, drums are parodies/interpretations of the original songs. You may use it for private study, scholarship, research or language learning purposes only