Home » R » Rebelution »

Rebelution - Lazy Afternoon Ukulele

Artists:  A B C D E F G H I J K L M N O P Q R S T U V W X Y Z # 

Lazy Afternoon Ukulele

(ver. 1) Click to play this song!
Rebelution
-----------------------------------------------------------------
Lazy Afternoon- Rebelution
-----------------------------------------------------------------
Tuning: Standard
     G       Am      Bm      Am
e|---3---3---5---5---7---7---5---5-------------------------------|
B|---3---3---5---5---7---7---5---5-------------------------------|
G|---4---4---5---5---7---7---5---5-------------------------------|
D|---5---5---7---7---9---9---7---7-------------------------------|
A|---5---5---7---7---9---9---7---7-------------------------------|
E|---3---3---5---5---7---7---5---5-------------------------------|
            
Submit corrections

↑ Back to top | Tablatures and chords for acoustic guitar and electric guitar, ukulele, drums are parodies/interpretations of the original songs. You may use it for private study, scholarship, research or language learning purposes only