Home » R » Rebelution »

Rebelution - Day By Day Bass

Artists:  A B C D E F G H I J K L M N O P Q R S T U V W X Y Z # 

Day By Day Bass

(ver. 1) Click to play this song!
Rebelution
[Intro and course]

G|---------------------------------------------------------------------------|
D|---------------------------------------------------------------------------|
A|----------------------5~----2-2-3~---2-3-----------------------------------|
E|-------4-5------5-7-8--------------------3------3--5--6--0~----------------|

G|---------------------------------------------------------------------------|
D|---------------------------------------------------------------------------|
A|----------------------5~----2-2-3~---2-3-----------------------------------|
E|---------5------5-7-8--------------------3------3--5--6--0~----------------| x3

[Verse]
G|---------------------------------------------------------------------------|
D|---------------------------------------------------------------------------|
A|----------------------5~----2-2-3~---2-3-----------------------------------|
E|---------5------5-7-8--------------------3------3--5--6--0~----------------| x4

G|---------------------------------------------------------------------------|
D|---------------------------------------------------------------------------|
A|----------------------5~----2-2-3~---2-3-----------------------------------|
E|----------------5-7-8--------------------3------3--5--6--0~----------------|

G|---------------------------------------------------------------------------|
D|---------------------------------------------------------------------------|
A|----------------------5~----2-2-3~---2-3-----------------------------------|
E|---------5------5-7-8--------------------3------3--5--6--0~----------------|

["Course"]

G|---------------------------------------------------------------------------|
D|---------------------------------------------------------------------------|
A|----------------------5~----2-2-3~---2-3-----------------------------------|
E|-------4-5------5-7-8--------------------3------3--5--6--0~----------------|

[2nd Verse]

(1:42-2:00) = Second verse- a spread out version of this riff, its easy to hear. 

(2:01)

G|---------------------------------------------------------------------------|
D|---------------------------------------------------------------------------|
A|----------------------5~----2-2-3~---2-3-----------------------------------|
E|---------5------5-7-8--------------------3------3--5--6--0~----------------| x2

G|---------------------------------------------------------------------------|
D|---------------------------------------------------------------------------|
A|----------------------5~----2-2-3~---2-3-----------------------------------|
E|----------------5-7-8--------------------3------3--5--6--0~----------------|

G|---------------------------------------------------------------------------|
D|---------------------------------------------------------------------------|
A|----------------------5~----2-2-3~---2-3-----------------------------------|
E|---------5------5-7-8--------------------3------3--5--6--0~----------------|

[Outro]

G|---------------------------------------------------------------------------|
D|---------------------------------------------------------------------------|
A|----------------------5~----2-2-3~---2-3-----------------------------------|
E|-------4-5------5-7-8--------------------3------3--5--6--0~----------------|

G|---------------------------------------------------------------------------|
D|---------------------------------------------------------------------------|
A|----------------------5~----2-2-3~---2-3-----------------------------------|
E|---------5------5-7-8--------------------3------3--5--6--0~----------------|            
Submit corrections

↑ Back to top | Tablatures and chords for acoustic guitar and electric guitar, ukulele, drums are parodies/interpretations of the original songs. You may use it for private study, scholarship, research or language learning purposes only