Home » R » Rebelution »

Rebelution - Count Me In Chords

Artists:  A B C D E F G H I J K L M N O P Q R S T U V W X Y Z # 

Count Me In Chords

(ver. 1) Click to play this song!
Rebelution
Tuning: Standard

    C    D9   Em   Am 
e|--8----7----7----5------|
B|--8----7----8----5------|
G|--9----7----9----6------|
D|--10---7----9----7------|
A|--10---7----7----7------|
E|--8----5---------5------|

[Intro / Verse]:

     C                           D     Em               
e|--/17--15---17h15--15---15h17--15------------------------------------------|
B|--/17--15---17h15--15---15h17--15----15--12---12h13--12---12h13--12--------|
G|-------------------------------------16--12---12h14--12---12h14--12--------|
D|---------------------------------------------------------------------------|
A|---------------------------------------------------------------------------|
E|---------------------------------------------------------------------------|
     C                           D     Em
e|---------------------------------------------------------------------------|
B|--/15--12---12h13--12---12h13--12----/15--12---12h13--12---12h13--12-------|
G|--/16--12---12h14--12---12h14--12----/16--12---12h14--12---12h14--12-------|
D|---------------------------------------------------------------------------|
A|---------------------------------------------------------------------------|
E|---------------------------------------------------------------------------|


[Verse]:

C                        D9  Em
Now I gotta make my rounds
                        D9  C
Where can I lay you down?
C                          D9  Em     D9
I'm gonna miss your love tonight
C                               D9  Em
You know I really love your sound
                         D9  C
Where can I leave you now?
                           D9  Em
I'm gonna miss your love tonight


[Chorus]:

           C
Well I say hey
         Am
Count me in
  Em
Always
                 C
That's all I wanted
       Am
Was to say
  Em
Always


[Intro]

[Verse]:

C                  D9  Em
Maybe in another life
                  D9  C
You I tried to find
                       D9  Em     D9
But all had been neglected
C                        D9  Em
And you're so true to form
                          D9  C
Nah you know I can't ignore
                      D9  Em
The way that we connected


[Breakdown]:

e|-------------------------------------|
B|-----0-------0-------0-------0-------|
G|----0-0-----0-0-----0-0-----0-0------|
D|---5---5---5---5---5---5---0---0-----|
A|--7-------5-------3-------2----------|
E|-------------------------------------|

e|-----------------------------------12-----|
B|-----0-------0-------0-------0-----12-----|   *Down-strum the last chord with the song
G|----0-0-----0-0-----0-0-----0-0----12-----|
D|---5---5---5---5---5---5---0---0---12-----|
A|--3-------5-------7-------9--------10-----|
E|------------------------------------------|


[Intro]

[Chorus]:

           C
Well I say hey
         Am
Count me in
  Em
Always
                 C
That's all I wanted
       Am
Was to say
  Em
Always            
Submit corrections

↑ Back to top | Tablatures and chords for acoustic guitar and electric guitar, ukulele, drums are parodies/interpretations of the original songs. You may use it for private study, scholarship, research or language learning purposes only