Home » R » Rebelution »

Rebelution - Counterfeit Love Tabs

Artists:  A B C D E F G H I J K L M N O P Q R S T U V W X Y Z # 

Counterfeit Love Tabs

(ver. 1) Click to play this song!
Rebelution
[Intro Part 1]

e|---------------------------------------------------------------------------|
B|---------1---------------1---0-----------0---------------3-----------------|
G|-----2-----2---2-----2-----2---0-----0-----0---0-----0-----0---0-----------|
D|---2---2-----2-----0---0-----------0---0-----0-----4---4-----4-------------|
A|-0-------------------------------------------------------------------------|
E|-----------------2---------------3---------------0-------------------------|

e|---------------------------------------------------------------------------|
B|---------1---------------0---------------0---------------3-----------------|
G|-----2-----2---2-----2-----2---0-----0-----0---0-----0---------------------|
D|---2---2-----2-----0---0-----0-----0---0-----0-----4---4-------------------|
A|-0-------------------------------------------------------------------------|
E|-----------------2---------------3---------------0-------------------------|

e|---------------------------------------------------------------------------|
B|-1-------1-------------1---0---------0-------------3-----------------------|
G|-----2-------2-----2-------------0-------0-----0-------0-------------------|
D|---2-------2-----0-------0-----0-------0-----4---4---4---------------------|
A|-0-----0-------------------------------------------------------------------|
E|---------------2-----2-------3-----3-------0-------------------------------|

e|---------------------------------------------------0-----------------------|
B|---------1-----------------0---------0-----------3-------------------------|
G|-----2-------2---------2---------0-------0-----0---------------------------|
D|---2-------2-----0-0-----0-----0---0---0-----4-----------------------------|
A|-0-----0-------------------------------------------------------------------|
E|---------------2-----2-------3-------------0-------------------------------|


[Intro Part 2]

PM baselines and base notes.
Use reggae style chord strumming. 
                                                                                
e|---5-----------x---------3-----------7-------------5-----------x-----------3-------------7----------------|
B|---5-----------7---------3-----------8-------------5-----------7-----------3-------------9----------------|
G|---5-----------7---------4-----------7-------------5-----------7-----------4-------------7----------------|
D|---7-----------7---4-7---5-----------9-------------7-----------7---4-4-7---5-------------9----------------|
A|---7-----5h7-5-5-5-------5-5-2-------7-7h9-7-------7-----5h7-5-5-5---------5-5-2-2-------7-7h9-7----------|
E|-5-5-5-8---------------3-3-----5-3-0---------8-7-5-5-5-8-----------------3-3-------5-3-0---------8-7-5----|


[Verse 1]

e|---5-----------x---------3-----------7-------------|
B|---5-----------7---------3-----------8-------------|
G|---5-----------7---------4-----------7-------------| x4
D|---7-----------7---4-7---5-----------9-------------| 
A|---7-----5h7-5-5-5-------5-5-2-------7-7h9-7-------|
E|-5-5-5-8---------------3-3-----5-3-0---------8-7---|

e|---5-----------x---------3-3---7-7-----------------|
B|---5-----------7---------3-3---9-9-----------------|
G|---5-----------7---------5-5---7-7-----------------| 
D|---7-----------7---4-7---5-5---9-9-----------------| 
A|---7-----5h7-5-5-5-------4-4-7-7-7-----------------|
E|-5-5-5-8---------------3-3-3-----------------------|


[Chorus]

e|---5-5---x-x---3-3---7-7---------------------------|
B|---5-5---7-7---3-3---9-9---------------------------|
G|---5-5---7-7---5-5---7-7---------------------------| x3
D|---7-7---7-7---4-4---9-9---------------------------|
A|---7-7-5-5-5---4-4-7-7-7---------------------------|
E|-5-5-5-------3-3-3---------------------------------|            
Submit corrections

↑ Back to top | Tablatures and chords for acoustic guitar and electric guitar, ukulele, drums are parodies/interpretations of the original songs. You may use it for private study, scholarship, research or language learning purposes only