Home » R » Rebel Son »

Rebel Son - Beer Bottle Betty Tabs

Artists:  A B C D E F G H I J K L M N O P Q R S T U V W X Y Z # 

Beer Bottle Betty Tabs

(ver. 1) Click to play this song!
Rebel Son
Tuning: Drop D

E|------------------------------------------|
B|------------------------------------------|
G|------------------------------------------|
D|--------------------0--3bx-0--------0-----|
A|-----5-----3h-5---------------0h-3--------|
D|--0-----0--------0---------------------3b-|

E|---------------------------------------------------|
B|---------------------------------------------------|
G|---------------------------------------------------|
D|--------------------0-----0-----------0------------|
A|-----5-----3h-5-----------0-----0-h3---------------|
D|--0-----0--------0-----x-----0-----------3b---0----|
            
Submit corrections

↑ Back to top | Tablatures and chords for acoustic guitar and electric guitar, ukulele, drums are parodies/interpretations of the original songs. You may use it for private study, scholarship, research or language learning purposes only