Home » R » Reba Mcentire »

Reba Mcentire - Sky Full Of Angels Tabs

Artists:  A B C D E F G H I J K L M N O P Q R S T U V W X Y Z # 

Sky Full Of Angels Tabs

(ver. 1) Click to play this song!
Reba Mcentire

This Intro, like many other songs, is used in other spots throughout
the entire song. So listen carefully to it, and use this as the fill.

Intro:

E-------------------------------------
B-------------------------------------
G-------------------------------------
D--4/6--4--2--------------4/6--4--2---
A------------4--2h4--4/7--------------
E-------------------------------------

E--------------------------------------
B--------------------------------------
G--------------------------------------
D--4/6--4--2-------------2--2h4--2-----
A------------4--2h4--4/7---------------
E--------------------------------------


Or, you can play it like this, which I just figured out sounds better.

E-------------------------------------
B--7/9--7--5--------------7/9--7--5---
G------------6--4h6--6/9--------------
D-------------------------------------
A-------------------------------------
E-------------------------------------

E-------------------------------------
B--7/9--7--5-------------5--5h7--5----
G------------6--4h6--6/9--------------
D-------------------------------------
A-------------------------------------
E-------------------------------------
            
Submit corrections

↑ Back to top | Tablatures and chords for acoustic guitar and electric guitar, ukulele, drums are parodies/interpretations of the original songs. You may use it for private study, scholarship, research or language learning purposes only