Home » R » Reba Mcentire »

Reba Mcentire - I'm A Survivor Tabs

Artists:  A B C D E F G H I J K L M N O P Q R S T U V W X Y Z # 

I'm A Survivor Tabs

(ver. 1) Click to play this song!
Reba Mcentire
"



Solo:

E--------10--------------------------10------------10------10--
B--10h12----10h12-----10--10--10--12----10--10--12-----12------
G-----------------11-------------------------------------------
D--------------------------------------------------------------
A--------------------------------------------------------------
E--------------------------------------------------------------

E--/14--14h15p14--12--10--12----
B-------------------------------
G-------------------------------
D-------------------------------
A-------------------------------
E-------------------------------
"            
Submit corrections

↑ Back to top | Tablatures and chords for acoustic guitar and electric guitar, ukulele, drums are parodies/interpretations of the original songs. You may use it for private study, scholarship, research or language learning purposes only