Home » R » Reba Mcentire »

Reba Mcentire - I'd Rather Ride Around With You Tabs

Artists:  A B C D E F G H I J K L M N O P Q R S T U V W X Y Z # 

I'd Rather Ride Around With You Tabs

(ver. 1) Click to play this song!
Reba Mcentire
Intro                                                     
E---|----------------------------------------------------
B---|----------------------------------------------------
G---|----------------------------------------------------
D---|--2/5--5------------------3\2--0-----0h2--0-----0---
A---|----------5p3--5p3--0--3----------3----------3------
E---|----------------------------------------------------


    Same as above, but higher octave
E---|----------------------------------------------------
B---|-----8--8------------------6p5----------------------
G---|--9--------7\5--7p5-----5-------7p5--7/9--7\5h7-----
D---|---------------------7------------------------------
A---|----------------------------------------------------
E---|----------------------------------------------------
            
Submit corrections

↑ Back to top | Tablatures and chords for acoustic guitar and electric guitar, ukulele, drums are parodies/interpretations of the original songs. You may use it for private study, scholarship, research or language learning purposes only