Home » R » Reba Mcentire »

Reba Mcentire - Can't Even Get The Blues Tabs

Artists:  A B C D E F G H I J K L M N O P Q R S T U V W X Y Z # 

Can't Even Get The Blues Tabs

(ver. 1) Click to play this song!
Reba Mcentire
Intro                                       
E---|----------------|---
B---|----------3\1---|---
G---|---2h3h4--------|---
D---|----------------|---
A---|----------------|---
E---|----------------|---
                                                                        
    Chorus Licks
E---|-------------|----------------
B---|-------------|----------------
G---|-------------|---7--5---------
D---|---5--3------|---------7------
A---|---------5---|------------5---
E---|-------------|----------------
            
Submit corrections

↑ Back to top | Tablatures and chords for acoustic guitar and electric guitar, ukulele, drums are parodies/interpretations of the original songs. You may use it for private study, scholarship, research or language learning purposes only