Home » R » Ray Stevens »

Ray Stevens - Everything Is Beautiful Bass

Artists:  A B C D E F G H I J K L M N O P Q R S T U V W X Y Z # 

Everything Is Beautiful Bass

(ver. 1) Click to play this song!
Ray Stevens
                   Jesus   loves    children         all     children
G|----------------|----------------|----------------|----------------|
D|----------------|----------------|----------------|----------------|
A|----------3-3-3-|------------1---|----------------|3---------------|
E|----------------|1-------1-------|1-------1-------|--------1-------|

G|----------------|----------------|----------------|----------------|
D|----------------|----------------|----------------|----------------|
A|3-------3-------|----------------|1---------------|1---1---3---3---|
E|----------------|1-------1-------|--------1-------|----------------|
                          
                           Every
G|----------------|----------------|
D|----------------|----------------|
A|--------3-------|--------3---3---|
E|1---------------|1---1-----------|

  Chorus:
G|----------------|----------------|----------------|----------------|
D|----------------|0---0---0---0---|----------------|----------------|
A|----------------|----------------|----------------|----------------|
E|1---1---1---1---|----------------|3---3---3---3---|3---3---3---3---|

G|----------------|----------------|----------------|----------------|
D|----------------|----------------|----------------|----------------|
A|3---3---3---3---|3---3---3---3---|--------1---1---|--------3---3---|
E|----------------|----------------|1---1-----------|1---1-----------|

G|----------------|----------------|----------------|----------------|
D|----------------|0---0---0---0---|----------------|----------------|
A|----------------|----------------|----------------|----------------|
E|1---1---1---1---|----------------|3---3---3---3---|3---3---3---3---|

G|----------------|----------------|----------------|----------------|
D|----------------|----------------|----------------|----------------|
A|3---3---3---3---|3---3---3---3---|--------1---1---|--------3---3---|
E|----------------|----------------|1---1-----------|1---1-----------|

  Verse:
G|----------------|----------------|----------------|----------------|
D|----------------|----------------|----------------|----------------|
A|----------------|3---3---3---3---|3---3---3---3---|--------3---3---|
E|1---1---1---1---|----------------|----------------|1---1-----------|
      There   so   blind            he  who

G|----------------|----------------|----------------|----------------|
D|----------------|----------------|----------------|----------------|
A|----------------|3---3---3---3---|1---1---1---1---|--------3---3---|
E|1---1---1-------|----------------|----------------|1---1-----------|

G|----------------|----------------|----------------|----------------|
D|----------------|----------------|----------------|----------------|
A|----------------|3---3---3---3---|1---1---1---1---|--------3---3---|
E|1---1---1---1---|----------------|----------------|1---1-----------|

G|----------------|----------------|----------------|----------------|
D|----------------|----------------|----------------|----------------|
A|----------------|3---3---3---3---|1---1---1---1---|--------1---1---|
E|1---1---1---1---|----------------|----------------|1---1-----------|

G|----------------|
D|----------------|
A|--------3---3---|
E|1---1-----------|

  Chorus:
G|----------------|----------------|----------------|----------------|
D|----------------|0---0---0---0---|----------------|----------------|
A|----------------|----------------|----------------|----------------|
E|1---1---1---1---|----------------|3---3---3---3---|3---3---3---3---|

G|----------------|----------------|----------------|----------------|
D|----------------|----------------|----------------|----------------|
A|3---3---3---3---|3---3---3---3---|--------1---1---|--------3---3---|
E|----------------|----------------|1---1-----------|1---1-----------|

G|----------------|----------------|----------------|----------------|
D|----------------|0---0---0---0---|----------------|----------------|
A|----------------|----------------|----------------|----------------|
E|1---1---1---1---|----------------|3---3---3---3---|3---3---3---3---|

G|----------------|----------------|----------------|----------------|
D|----------------|----------------|----------------|----------------|
A|3---3---3---3---|3---3---3---3---|--------1---1---|--------3---3---|
E|----------------|----------------|1---1-----------|1---1-----------|

  Verse:
G|----------------|----------------|----------------|----------------|
D|----------------|----------------|----------------|----------------|
A|----------------|3---3---3---3---|3---3---3---3---|--------3---3---|
E|1---1---1---1---|----------------|----------------|1---1-----------|

G|----------------|----------------|----------------|----------------|
D|----------------|----------------|----------------|----------------|
A|----------------|3---3---3---3---|1---1---1---1---|--------3---3---|
E|1---1---1-------|----------------|----------------|1---1-----------|

G|----------------|----------------|----------------|----------------|
D|----------------|----------------|----------------|----------------|
A|----------------|3---3---3---3---|1---1---1---1---|--------3---3---|
E|1---1---1---1---|----------------|----------------|1---1-----------|

G|----------------|----------------|----------------|----------------|
D|----------------|----------------|----------------|----------------|
A|----------------|3---3---3---3---|1---1---1---1---|--------1---1---|
E|1---1---1---1---|----------------|----------------|1---1-----------|

G|----------------|
D|----------------|
A|--------3---3---|
E|1---1-----------|

 Chorus:  (keep repeating)
G|----------------|----------------|----------------|----------------|
D|----------------|0---0---0---0---|----------------|----------------|
A|----------------|----------------|----------------|----------------|
E|1---1---1---1---|----------------|3---3---3---3---|3---3---3---3---|

G|----------------|----------------|----------------|----------------|
D|----------------|----------------|----------------|----------------|
A|3---3---3---3---|3---3---3---3---|--------1---1---|--------3---3---|
E|----------------|----------------|1---1-----------|1---1-----------|

G|----------------|----------------|----------------|----------------|
D|----------------|0---0---0---0---|----------------|----------------|
A|----------------|----------------|----------------|----------------|
E|1---1---1---1---|----------------|3---3---3---3---|3---3---3---3---|

G|----------------|----------------|----------------|----------------|
D|----------------|----------------|----------------|----------------|
A|3---3---3---3---|3---3---3---3---|--------1---1---|--------3---3---|
E|----------------|----------------|1---1-----------|1---1-----------|
            
Submit corrections

↑ Back to top | Tablatures and chords for acoustic guitar and electric guitar, ukulele, drums are parodies/interpretations of the original songs. You may use it for private study, scholarship, research or language learning purposes only