» » »

Rasmus - In The Shadows Bass

Artists:  A B C D E F G H I J K L M N O P Q R S T U V W X Y Z # 

In The Shadows Bass

(ver. 2) Click to play this song!
Rasmus
 Rating:
4/5 (4 votes)


 In The Shadows lessons Tabs too difficult? Try these video lessons and learn fast
 
                im pretty sure this is right apart from verse 2 and the bridge where he plays extra 
so ill try to work it out

intro
x`1
G|-------------------------------------------------------|
D|-------------------------------------------------------|
A|----5-5--575--4-0-------------0---2-4-555-4-0----------|
E|-------------------2-2-2-00-2-----------------22-44-5--|
x 2
G|------------------------------------------------------------|
D|------------------------------------------------------------|
A|---5-5--575---4-0-------------0--2-4--555-4-0------------0--|
E|-------------------2-2-2-00-2-----------------2-2-2-00-2----|


verse 1

G|-----------------------------------------------------------------------------|
D|-----------------------------------------------------------------------------|
A|---2--2--2--2--------------2--2--2--2-------------2--2--2--2-----------------|
E|---------------2--2--2--2-------------2--2--2--2-------------2--2--2--2------|

G|-----------------------------------------------------------------------------|
D|-----------------------------------------------------------------------------|
A|-2--2--2--2-------------5--5--5--5--------------2--2--2--2-------------------|
E|------------2--2--2--2--------------2--2--2--2-------------2--2--2--2--------|

G|---------------------------------------------------------------------------|
D|---------------------------------------------------------------------------|
A|--2--2--2--2---------------2--2--2--2--------------------------------------|
E|--------------2--2--2--2---------------2-1-0-------------------------------|


chorus

G|------------------------------------------------------------------------------|
D|------------------------------------------------------------------------------|
A|--55555555----------22222222------------55555555-----------22222222-----------|
E|-----------22222222-----------22222222-----------22222222------------22222222-|

intro
x 1
G|------------------------------------------------------------|
D|------------------------------------------------------------|
A|---5-5--575---4-0-------------0--2-4--555-4-0------------0--|
E|-------------------2-2-2-00-2-----------------2-2-2-00-2----|
x 1
G|-------------------------------------------------------|
D|-------------------------------------------------------|
A|----5-5--575--4-0-------------0---2-4-555-4-0----------|
E|-------------------2-2-2-00-2-----------------22-44-5--|

verse 2

G|---------------------------------------------------------------------------|
D|---------------------------------------------------------------------------|
A|--2--2--2--2-------------2--2--2--2-------------2--2--2--2-----------------|
E|--------------2--2--2--2------------2--2--2--2-------------2--2--2--2------|

G|-----------------------------------------------------------------------------|
D|-----------------------------------------------------------------------------|
A|-2--2--2--2--------------5--5--5--5--------------2--2--2--2------------------|
E|-------------2--2--2--2--------------2--2--2--2-------------2--2--2--2-------|

G|-----------------------------------------------------------------------------|
D|-----------------------------------------------------------------------------|
A|-2--2--2--2-------------2--2--2--2-------------------------------------------|
E|------------2--2--2--2--------------2-1-0------------------------------------|

chorus

G|------------------------------------------------------------------------------|
D|------------------------------------------------------------------------------|
A|--55555555----------22222222------------55555555-----------22222222-----------|
E|-----------22222222-----------22222222-----------22222222------------22222222-|


bridge

G|------------------------------------------------------------------------------------|
D|------------------------------------------------------------------------------------|
A|--5--5--5--5--5--5--5--5-------------------------2--2--2--2--2--2--2--2-------------|
E|-------------------------2--2--2--2--2--2--2--2-------------------------2--2--2--2--|

G|--------------------------------------------------------------------------------|
D|--------------------------------------------------------------------------------|
A|--------------------------------------------------------------------------------|
E|--2-1-0-------------------------------------------------------------------------|

chorus  x 2

G|-------------------------------------------------------------------------|
D|-------------------------------------------------------------------------|
A|--55555555---------22222222---------55555555----------22222222-----------|
E|-----------22222222--------22222222----------22222222----------22222222--|

intro x 2

G|------------------------------------------------------------|
D|------------------------------------------------------------|
A|---5-5--575---4-0-------------0--2-4--555-4-0------------0--|
E|-------------------2-2-2-00-2-----------------2-2-2-00-2----|
            
Submit corrections



        In The Shadows lessons Hard to play? Try these video lessons and learn fast In The Shadows lessons
        
↑ Back to top | Tablatures and chords for acoustic guitar and electric guitar, ukulele, drums are parodies/interpretations of the original songs. You may use it for private study, scholarship, research or language learning purposes only