» » »

Randy Newman - William Brown Tabs

Artists:  A B C D E F G H I J K L M N O P Q R S T U V W X Y Z # 

William Brown Tabs

(ver. 1) Click to play this song!
Randy Newman
 Rating:
4.3/5 (9 votes)

 William Brown  lessons Tabs too difficult? Try these video lessons and learn fast
 
                VERSE
Ddim  D           Ddim D            A A9  A6  A7    Ddim D
  1 + 2 + 3 + 4 +  1 + 2 + 3 + 4 +  1 + 2 + 3 + 4 +  1 + 2 + 3 + 4 +  
e|1---2-----------|1---2-----------|0-3-3-2-2-0-0---|1---2-----------|
B|--------3-------|--------3-------|2---------------|--------3-------|
G|1---2-----------|1---2-----------|2-4-4-2-2-0-0---|1---2-----------|
D|0---------------|0---------------|----------------|0---------------|
A|----------------|----------------|0---------------|----------------|
E|----------------|----------------|----------------|----------------|

CHORUS
Gsus2 G            G  Gadd#11     Gsus2 G          Dsus2 D     D(b5)
  1 + 2 + 3 + 4 +  1 + 2 + 3 + 4 +  1 + 2 + 3 + 4 +  1 + 2 + 3 + 4 +  
e|----------------|----------------|----------------|0---2-----------|
B|----0-----------|0---2-----------|----0-----------|3-------3-------|
G|2---0-----------|0---0-----------|2---0-----------|2-----------1---|
D|0---------------|----------------|0---------------|0---------------|
A|----------------|----------------|----------------|----------------|
E|3---------------|3---------------|0---------------|----------------|

Dsus2 D     D(b5)
  1 + 2 + 3 + 4 +  
e|0---2-----------|
B|3-------3-------|
G|2-----------1---|
D|0---------------|
A|----------------|
E|----------------|

---------------------------------------------------------------------------
CHORDS

        E-A-D-G-B-e
Ddim    x-x-0-1-3-1
D       x-x-0-2-3-2
A       x-0-2-2-2-0
A9      x-0-2-4-2-3
A6      x-0-2-2-2-2
A7      x-0-2-0-2-0

Gsus2   3-x-0-2-x-x
G       3-x-0-0-0-x
Gadd#11 3-x-0-0-2-x
Dsus2   x-x-0-2-3-0
D(b5)   x-x-0-1-3-x

---------------------------------------------------------------------------

[Verse]
Ddim    D
William Brown, 
    Ddim  D
A tobacco man
A    A9      A6  A7
Left North Carolina 
        Ddim     D
When he sold his land

[Verse]
   Ddim   D
He took a train 
   Ddim D
to Oma -ha
A      A9         A6           A7        Ddim    D
Stayed there with some friends he had 


[Chorus] 
       Gsus2           G
And he didn't mind the dust
       G               Gadd#11
And he didn't mind the wind
       Gsus2           G
And he didn't mind the cold
       Dsus2       D     D(b5)    Dsus2 D   D(b5)
And he didn't miss home


[Verse]
       Ddim      D
And he liked the people
       Ddim      D
And he liked the town
      A        A9     A6      A7
So he built himself a house beside 
    Ddim D     D(b5)
The ri - ver


[Verse]
       Ddim         D
And he sent for his children
       Ddim         D
And he sent for his cars
       A      A9   A6      A7
And he bought a little business 
           Ddim  D
That would run itself


[Chorus] 
       Gsus2           G
And he didn't mind the dust
       G               Gadd#11
And he didn't mind the wind
       Gsus2           G
And he didn't mind the cold
       Dsus2       D         Dsus2 D     Dsus2 D     Dsus2 D
And he never missed home

            
Submit corrections


        William Brown  lessons Hard to play? Try these video lessons and learn fast William Brown  lessons
        
↑ Back to top | Tablatures and chords for acoustic guitar and electric guitar, ukulele, drums are parodies/interpretations of the original songs. You may use it for private study, scholarship, research or language learning purposes only