» » »

Randy Newman - Texas Girl At The Funeral Of Her Father Chords

Artists:  A B C D E F G H I J K L M N O P Q R S T U V W X Y Z # 

Texas Girl At The Funeral Of Her Father Chords

(ver. 1) Click to play this song!
Randy Newman
 Rating:
4/5 (4 votes)


 Texas Girl At The Funeral Of Her Father lessons Tabs too difficult? Try these video lessons and learn fast
 
                --------------------------------------------------------------------------
---------------------------------------------------------------------------
Tuning: Standard

Randy Newman
Texas Girl At The Funeral Of Her Father (1977)
(Randy Newman)


---------------------------------------------------------------------------
INTRO

e|--------------2-|
B|------------3---|
G|----------2-----|
D|----------------|
A|----------------|
E|----------------|
  A                D                G       E/G#     A 
e|3-------------0-|2-------------2-|3---2---0-------|0-------------2-|
B|2-----------2---|3-----------3---|0-------0---3---|2-----------3---|
G|2---------2-----|2---------2-----|0-------1-------|2---------2-----|
D|2---------------|0---------------|0-------2-------|2---------------|
A|0---------------|----------------|x-------x-------|0---------------|
E|----------------|----------------|3-------4-------|----------------|
A7sus4 Asus2 A    Dsus2     D        G      E/G#    Asus4 A 
e|3-------------0-|2-------------2-|3---2---0---7---|----------------|
B|3---0---2---2---|5-------3---3---|0-------0-------|3---2-----------|
G|2---------2-----|2---------2-----|0---------------|2---------------|
D|2---------------|0---------------|0---------------|2---------------|
A|0---------------|----------------|x---------------|0---------------|
E|----------------|----------------|3-------4-------|----------------|

---------------------------------------------------------------------------
CHORDS

        e-B-G-D-A-D
E/G#    0-0-1-2-x-4
Asus4   0-3-2-2-0-x
Asus2   0-0-2-2-0-x
Dadd9   2-5-2-0-x-x
D(no3rd)x-3-2-0-x-x
D/A     x-3-2-0-0-x
D/F#    x-3-2-0-x-2
F#/A#   2-2-3-x-1-x

---------------------------------------------------------------------------

INTRO
| A7 | D | G E/G# | A |
| Asus4 Asus2 A   | Dsus2 D(no 3rd) | G E/G# | Asus4 A    |

D        Bm7
  Here I am 
F#m           G
  Lost in the wind
D/A  D/F#  D7 G       D/A A
     Round in circles sai-ling 
D        Bm7
  Like a ship 
F#m                G
  That never comes in 
D/A D/F# D7   G    E/G#  Asus4  A
    Stan-ding by myself 

F#/A#        Bm     A7           D
  Sing a sad song     for a good man 
G        E/G#         Asus4  A  Asus2  A
  Sing a sad song for me 
F#/A#        Bm     A7           D
  Sing a sad song     for the sailor 
  G   E/G# D/A   A        D
A thousand miles from the sea 

INTRO
| A7 | D | G E/G# | A |
| Asus4 Asus2 A   | Dsus2 D(no 3rd) | G E/G# | Asus4 A    |

D        Bm7
  Here I am 
F#m            G
  Alone on the plain 
F#m           G
  Sun's going down 
F#m                G
  It's starting to rain 
D/A               A     D 
Papa, we'll go sailing
            
Submit corrections



        Texas Girl At The Funeral Of Her Father lessons Hard to play? Try these video lessons and learn fast Texas Girl At The Funeral Of Her Father lessons
        
↑ Back to top | Tablatures and chords for acoustic guitar and electric guitar, ukulele, drums are parodies/interpretations of the original songs. You may use it for private study, scholarship, research or language learning purposes only