» » »

Rancid - Tabs

Artists:  A B C D E F G H I J K L M N O P Q R S T U V W X Y Z # 

Tabs

(ver. 1) Click to play this song!
Rancid
 Rating:
4.3/5 (12 votes)

  lessons Tabs too difficult? Try these video lessons and learn fast
 
                [Intro]
(Guitar 1)
e|------------------|------------------|------------------|------------------|
B|------------------|------------------|------------------|------------------|
G|-------------3-3--|-------------3-3--|-------------3-3--|-------------3-3--|
D|--5-5--5--3--3-3--|--5-5--5--3--3-3--|--5-5--5--3--3-3--|--5-5--5--3--3-3--|
A|--5-5--5--3--1-1--|--5-5--5--3--1-1--|--5-5--5--3--1-1--|--5-5--5--3--1-1--|
E|--3-3--3--1-------|--3-3--3--1-------|--3-3--3--1-------|--3-3--3--1-------|

(Guitar 2)
e|------------------|------------------|------------------|------------------|
B|------------------|------------------|------------------|------------------|
G|------------------|------------------|------------------|------------------|
D|--5---------------|--5-5-------------|--5---------------|--5-5-------------|
A|--5---------------|--5-5-------------|--5---------------|--5-5-------------|
E|--3---------------|--3-3-------------|--3---------------|--3-3-------------|

(Guitar 1)
e|----------------------|-------------|----------------------|--------14--------------|
B|----------------------|-------------|----------------------|------------------------|
G|-----5--5b6--5--------|-----5--5b6--|-----5--5b6--5--------|--13b15----15pbr13--11--|
D|--8--5--5b6--5--8--5--|--8--5--5b6--|--8--5--5b6--5--8--5--|------------------------|
A|--8-------------8--5--|--8----------|--8-------------8--5--|------------------------|
E|----------------------|-------------|----------------------|------------------------|

(Guitar 2)
e|------------------|------------------|------------------|------------------|
B|------------------|------------------|------------------|------------------|
G|-------------3-3--|-------------3-3--|-------------3-3--|-------------3-3--|
D|--5-5--5--3--3-3--|--5-5--5--3--3-3--|--5-5--5--3--3-3--|--5-5--5--3--3-3--|
A|--5-5--5--3--1-1--|--5-5--5--3--1-1--|--5-5--5--3--1-1--|--5-5--5--3--1-1--|
E|--3-3--3--1-------|--3-3--3--1-------|--3-3--3--1-------|--3-3--3--1-------|

[Chorus]
(Guitar 1 & 2)
e|----------------|----------------|----------------|-------------------|
B|----------------|----------------|----------------|-------------------|
G|-2--2--2--2-2-2-|----------------|-2--2--2--2-2-2-|-------------------|
D|-2--2--2--2-2-2-|-3--3--3--3-3-3-|-2--2--2--2-2-2-|-3---3---3---3-3-3-|
A|-0--0--0--0-0-0-|-3--3--3--3-3-3-|-0--0--0--0-0-0-|-3---3---3---3-3-3-|
E|----------------|-1--1--1--1-1-1-|----------------|-1---1---1---1-1-1-|

[Verse 1]
(Guitar 1 & 2)
e|------------------|------------------|------------------|------------------|
B|------------------|------------------|------------------|------------------|
G|-------------3-3--|-------------3-3--|-------------3-3--|-------------3-3--|
D|--5-5--5--3--3-3--|--5-5--5--3--3-3--|--5-5--5--3--3-3--|--5-5--5--3--3-3--|
A|--5-5--5--3--1-1--|--5-5--5--3--1-1--|--5-5--5--3--1-1--|--5-5--5--3--1-1--|
E|--3-3--3--1-------|--3-3--3--1-------|--3-3--3--1-------|--3-3--3--1-------|


[Chorus]

(Guitar 1 & 2)
e|-------------------|-------------------|-------------------|-------------------|
B|-------------------|-------------------|-------------------|-------------------|
G|-2-2-2-2-2-2-2-2-2-|-------------------|-2-2-2-2-2-2-2-2-2-|-------------------|
D|-2-2-2-2-2-2-2-2-2-|-3-3-3-3-3-3-3-3-3-|-2-2-2-2-2-2-2-2-2-|-3---3---3---3-3-3-|
A|-0-0-0-0-0-0-0-0-0-|-3-3-3-3-3-3-3-3-3-|-0-0-0-0-0-0-0-0-0-|-3---3---3---3-3-3-|
E|-------------------|-1-1-1-1-1-1-1-1-1-|-------------------|-1---1---1---1-1-1-|

(Guitar 1)
e|------------------|------------------|------------------|------------------|
B|------------------|------------------|------------------|------------------|
G|-------------3-3--|-------------3-3--|-------------3-3--|-------------3-3--|
D|--5-5--5--3--3-3--|--5-5--5--3--3-3--|--5-5--5--3--3-3--|--5-5--5--3--3-3--|
A|--5-5--5--3--1-1--|--5-5--5--3--1-1--|--5-5--5--3--1-1--|--5-5--5--3--1-1--|
E|--3-3--3--1-------|--3-3--3--1-------|--3-3--3--1-------|--3-3--3--1-------|

[Verse 2]
(Guiitar 1 & 2)
e|------------------|------------------|------------------|------------------|
B|------------------|------------------|------------------|------------------|
G|-------------3-3--|-------------3-3--|-------------3-3--|-------------3-3--|
D|--5-5--5--3--3-3--|--5-5--5--3--3-3--|--5-5--5--3--3-3--|--5-5--5--3--3-3--|
A|--5-5--5--3--1-1--|--5-5--5--3--1-1--|--5-5--5--3--1-1--|--5-5--5--3--1-1--|
E|--3-3--3--1-------|--3-3--3--1-------|--3-3--3--1-------|--3-3--3--1-------|

[Chorus]
(Guitar 1 & 2)
e|-------------------|-------------------|-------------------|-------------------|
B|-------------------|-------------------|-------------------|-------------------|
G|-2-2-2-2-2-2-2-2-2-|-------------------|-2-2-2-2-2-2-2-2-2-|-------------------|
D|-2-2-2-2-2-2-2-2-2-|-3-3-3-3-3-3-3-3-3-|-2-2-2-2-2-2-2-2-2-|-3---3---3---3-3-3-| (x2)
A|-0-0-0-0-0-0-0-0-0-|-3-3-3-3-3-3-3-3-3-|-0-0-0-0-0-0-0-0-0-|-3---3---3---3-3-3-| 
E|-------------------|-1-1-1-1-1-1-1-1-1-|-------------------|-1---1---1---1-1-1-|

[Outro]
(Guitar 1)
e|------------------|-------|
B|------------------|-------|
G|-------------3-3--|-------|
D|--5-5--5--3--3-3--|--5-5--|
A|--5-5--5--3--1-1--|--5-5--|
E|--3-3--3--1-------|--3-3--|            
Submit corrections


         lessons Hard to play? Try these video lessons and learn fast  lessons
        
↑ Back to top | Tablatures and chords for acoustic guitar and electric guitar, ukulele, drums are parodies/interpretations of the original songs. You may use it for private study, scholarship, research or language learning purposes only