Home » R » Rancid »

Rancid - Raise Your Fist Bass

Artists:  A B C D E F G H I J K L M N O P Q R S T U V W X Y Z # 

Raise Your Fist Bass

(ver. 1) Click to play this song!
Rancid
Tuning:Standard

Intro and Verse
G|-------------------------------------------------|x3|-----------------------------------------------------|
D|-------------------------------------------------|  |-----------------------------------------------------|
A|-5-5-5-5-5-5-------------3-3-3-3-3-4-5-5-5-5-5-3-|  |-5-5-5-5-5-5-------------3-3-3-3-3-4-5-5-5-5-5-3-2-0-|
E|-------------3-3-3-3-3-5-------------------------|  |-------------3-3-3-3-3-5-----------------------------|

1st Chorus
G|-----------------------------------------------------------------------------------------------------------|
D|-----------------------------------------------------------------------------------------------2/3-3/4-4/5-|
A|---------0-2-3-5-5-5-3-2-0---------0-2-3-5-5-5-3-2-0-33-22-33-44-55-33-22-00----2/3-3/4-4/5-55-------------|
E|-3-3-3-3-------------------3-3-3-3-------------------------------------------33----------------------------|

G|-------------------------------------------------------------------------------------------|
D|--------------------------------------------------------------------33-22-00---------------|
A|---------0-2-3-5-5-5-3-2-0---------0-2-3-5-5-5-3-2-0-33-22-33-44-55------------------------|
E|-3-3-3-3-------------------3-3-3-3-------------------------------------------3-3-3-3-3-3-3-|

Verse
G|-------------------------------------------------|x3|-----------------------------------------------------|
D|-------------------------------------------------|  |-----------------------------------------------------|
A|-5-5-5-5-5-5-------------3-3-3-3-3-4-5-5-5-5-5-3-|  |-5-5-5-5-5-5-------------3-3-3-3-3-4-5-5-5-5-5-3-2-0-|
E|-------------3-3-3-3-3-5-------------------------|  |-------------3-3-3-3-3-5-----------------------------|

1st Chorus
G|-----------------------------------------------------------------------------------------------------------|
D|-----------------------------------------------------------------------------------------------2/3-3/4-4/5-|
A|---------0-2-3-5-5-5-3-2-0---------0-2-3-5-5-5-3-2-0-33-22-33-44-55-33-22-00----2/3-3/4-4/5-55-------------|
E|-3-3-3-3-------------------3-3-3-3-------------------------------------------33----------------------------|

G|-------------------------------------------------------------------------------------------|
D|-------------------------------------------------------------------------------------------|
A|---------0-2-3-5-5-5-3-2-0---------0-2-3-5-5-5-3-2-0-33-22-33-44-55-33-22-00---------------|
E|-3-3-3-3-------------------3-3-3-3-------------------------------------------3-3-3-3-3-3-3-|

Verse
G|-------------------------------------------------|x3|-----------------------------------------------------|
D|-------------------------------------------------|  |-----------------------------------------------------|
A|-5-5-5-5-5-5-------------3-3-3-3-3-4-5-5-5-5-5-3-|  |-5-5-5-5-5-5-------------3-3-3-3-3-4-5-5-5-5-5-3-2-0-|
E|-------------3-3-3-3-3-5-------------------------|  |-------------3-3-3-3-3-5-----------------------------|

2nd Chorus
G|-----------------------------------------------------------------------------------------------------|
D|--------------------------------------------------------------------------------55-33-22-00----------|
A|---------0-2-3-5-5-5-3-2-0---------0-2-3-5-5-5-3-2-0-33-22-33-44-55-33-22-00----------------33-22-00-|
E|-3-3-3-3-------------------3-3-3-3-------------------------------------------33----------------------|

G|-------------------------------------------------------------------------------------------|
D|-------------------------------------------------------------------------------------------|
A|---------0-2-3-5-5-5-3-2-0---------0-2-3-5-5-5-3-2-0-33-22-33-44-55-33-22-00---------------|
E|-3-3-3-3-------------------3-3-3-3-------------------------------------------3-3-3-3-3-3-3-|

Intro again
G|-------------------------------------------------|x3|-----------------------------------------------------|
D|-------------------------------------------------|  |-----------------------------------------------------|
A|-5-5-5-5-5-5-------------3-3-3-3-3-4-5-5-5-5-5-3-|  |-5-5-5-5-5-5-------------3-3-3-3-3-4-5-5-5-5-5-3-2-0-|
E|-------------3-3-3-3-3-5-------------------------|  |-------------3-3-3-3-3-5-----------------------------|

1st Chorus x2
G|-------------------------------------------------------------------------------------------------------|
D|-------------------------------------------------------------------------------------------------------|
A|---------0-2-3-5-5-5-3-2-0---------0-2-3-5-5-5-3-2-0-33-22-33-44-55-33-22-00-------------5-5-5-5-3-2-0-|
E|-3-3-3-3-------------------3-3-3-3-------------------------------------------3-3-3-3-3-3---------------|

G|-------------------------------------------------------------------------------------------|
D|-------------------------------------------------------------------------------------------|
A|---------0-2-3-5-5-5-3-2-0---------0-2-3-5-5-5-3-2-0-33-22-33-44-55-33-22-00---------------|
E|-3-3-3-3-------------------3-3-3-3-------------------------------------------3-3-3-3-3-3-3-|

End of the song
G|------------------------|
D|------------------------|
A|-3-2-3-4-5-3-2-0--------|
E|-----------------3------|            
Submit corrections

↑ Back to top | Tablatures and chords for acoustic guitar and electric guitar, ukulele, drums are parodies/interpretations of the original songs. You may use it for private study, scholarship, research or language learning purposes only