» » »

Rancid - Tabs

Artists:  A B C D E F G H I J K L M N O P Q R S T U V W X Y Z # 

Tabs

(ver. 1) Click to play this song!
Rancid
 Rating:
4.3/5 (29 votes)

  lessons Tabs too difficult? Try these video lessons and learn fast
 
                [Intro]
e|---------------|----------|-------------|------------|
B|---------------|----------|-------------|------------|
G|-5-5--5-5-5-5--|-5-5-5-5--|-5-5--5-5-5--|-5-5--5-5-5-|
D|-5-5--5-5-5-5--|-5-5-5-5--|-5-5--5-5-5--|-5-5--5-5-5-|
A|-3-3--3-3-3-3--|-3-3-3-3--|-3-3--3-3-3--|-3-3--3-3-3-|
E|---------------|----------|-------------|------------|

e|-------------|------------|------------|--------|
B|-------------|------------|------------|--------|
G|-5-5--5-5-5--|-5-5--5-5-5-|-5-5--5-5-5-|--------|
D|-5-5--5-5-5--|-5-5--5-5-5-|-5-5--5-5-5-|---\\---|
A|-3-3--3-3-3--|-3-3--3-3-3-|-3-3--3-3-3-|---\\---|
E|-------------|------------|------------|---\\---|

[Verse 1]
e|-----------------|-------------------------|-------------------------|-------------------------|
B|-----------------|-------------------------|-------------------------|-------------------------|
G|-5-5-5-5-5-5-5-5-|-10-10-10-10-10-10-10-10-|-10-10-10-10-10-10-10-10-|-12-12-12-12-12-12-12-12-|
D|-5-5-5-5-5-5-5-5-|-10-10-10-10-10-10-10-10-|-10-10-10-10-10-10-10-10-|-12-12-12-12-12-12-12-12-| (x2)
A|-3-3-3-3-3-3-3-3-|--8--8--8--8--8--8--8--8-|--8--8--8--8--8--8--8--8-|-10-10-10-10-10-10-10-10-|
E|-----------------|-------------------------|-------------------------|-------------------------|

[Pre-Chorus]
e|-----------------|-----------------|------------------|
B|-----------------|-----------------|------------------|
G|-----------------|-----------------|---------------7--|
D|-3-3-3-3-3-3-3-3-|-5-5-5-5-5-5-5-5-|-7-7-7-7-7-7-7-7--|
A|-3-3-3-3-3-3-3-3-|-5-5-5-5-5-5-5-5-|-7-7-7-7-7-7-7-5--|
E|-1-1-1-1-1-1-1-1-|-3-3-3-3-3-3-3-3-|-5-5-5-5-5-5-5----|

[Chorus]
e|----------------------------------|---------------------------------|
B|----------------------------------|---------------------------------|
G|-5-5-5-5-----------------5--5-5-5-|-5-5-5-5-------------------------|
D|-5-5-5-5-7-7-7-7--5-5-5--5--5-5-5-|-5-5-5-5-7-7-7-7--5-5-5-5-5-5-5--|
A|-3-3-3-3-7-7-7-7--5-5-5--3--3-3-3-|-3-3-3-3-7-7-7-7--5-5-5-5-5-5-5--|
E|---------5-5-5-5--3-3-3-----------|---------5-5-5-5--3-3-3-3-3-3-3--|

e|----------------------------------|----------------------------------|
B|----------------------------------|----------------------------------|
G|-5-5-5-5-----------------5--5-5-5-|-5-5-5-5-----------------5-5-5-5--|
D|-5-5-5-5--7-7-7-7-5-5-5--5--5-5-5-|-5-5-5-5--3-3-3-3-5-5-5--5-5-5-5--|
A|-3-3-3-3--7-7-7-7-5-5-5--3--3-3-3-|-3-3-3-3--3-3-3-3-5-5-5--3-3-3-3--|
E|----------5-5-5-5-3-3-3-----------|----------1-1-1-1-3-3-3-----------|

[Verse 2]
e|-----------------|-------------------------|-------------------------|-------------------------|
B|-----------------|-------------------------|-------------------------|-------------------------|
G|-5-5-5-5-5-5-5-5-|-10-10-10-10-10-10-10-10-|-10-10-10-10-10-10-10-10-|-12-12-12-12-12-12-12-12-|
D|-5-5-5-5-5-5-5-5-|-10-10-10-10-10-10-10-10-|-10-10-10-10-10-10-10-10-|-12-12-12-12-12-12-12-12-| (x2)
A|-3-3-3-3-3-3-3-3-|--8--8--8--8--8--8--8--8-|--8--8--8--8--8--8--8--8-|-10-10-10-10-10-10-10-10-|
E|-----------------|-------------------------|-------------------------|-------------------------|

[Pre-Chorus]
e|-----------------|-----------------|------------------|
B|-----------------|-----------------|------------------|
G|-----------------|-----------------|---------------7--|
D|-3-3-3-3-3-3-3-3-|-5-5-5-5-5-5-5-5-|-7-7-7-7-7-7-7-7--|
A|-3-3-3-3-3-3-3-3-|-5-5-5-5-5-5-5-5-|-7-7-7-7-7-7-7-5--|
E|-1-1-1-1-1-1-1-1-|-3-3-3-3-3-3-3-3-|-5-5-5-5-5-5-5----|

[Chorus]
e|----------------------------------|---------------------------------|
B|----------------------------------|---------------------------------|
G|-5-5-5-5-----------------5--5-5-5-|-5-5-5-5-------------------------|
D|-5-5-5-5-7-7-7-7--5-5-5--5--5-5-5-|-5-5-5-5-7-7-7-7--5-5-5-5-5-5-5--|
A|-3-3-3-3-7-7-7-7--5-5-5--3--3-3-3-|-3-3-3-3-7-7-7-7--5-5-5-5-5-5-5--|
E|---------5-5-5-5--3-3-3-----------|---------5-5-5-5--3-3-3-3-3-3-3--|

e|-----------------------------------|----------------------------------|
B|-----------------------------------|----------------------------------|
G|-5-5-5-5------------------5--5-5-5-|-5-5-5-5-----------------5-5-5-5--|
D|-5-5-5-5--7-7-7-7--5-5-5--5--5-5-5-|-5-5-5-5--3-3-3-3-5-5-5--5-5-5-5--|
A|-3-3-3-3--7-7-7-7--5-5-5--3--3-3-3-|-3-3-3-3--3-3-3-3-5-5-5--3-3-3-3--|
E|----------5-5-5-5--3-3-3-----------|----------1-1-1-1-3-3-3-----------|

[Solo]
Guitar 1
e|--------------11---------|------------------------|---------------------------------|
B|---8---8---8---8--8---8--|---8---8---8---10-10-10-|---8-10--8--10b11---8-----8-8----|
G|--10b-10b-10b----10b-10b-|--10b-10b-10b--10-10-10-|--10-10-10--10b11--10-----8-8----|
D|-------------------------|------------------------|-----------------------10-----10-|
A|-------------------------|------------------------|---------------------------------|
E|-------------------------|------------------------|---------------------------------|

e|----------------------------------|-----------------|----------------------|
B|----------------------------------|-----------------|----------------------|
G|----------------------------------|-----------------|----------------------|
D|------8--10-10--8h10p8h10p8-------|------8-10-------|----------------------|
A|-8h10------------------------10-8-|-8h10------10--8-|-8--------8-----------|
E|----------------------------------|-----------------|---11-11----11-11--8--|

Guitar 2
e|-----------------|-------------------------|-------------------------|-------------------------|
B|-----------------|-------------------------|-------------------------|-------------------------|
G|-5-5-5-5-5-5-5-5-|-10-10-10-10-10-10-10-10-|-10-10-10-10-10-10-10-10-|-12-12-12-12-12-12-12-12-|
D|-5-5-5-5-5-5-5-5-|-10-10-10-10-10-10-10-10-|-10-10-10-10-10-10-10-10-|-12-12-12-12-12-12-12-12-| (x2)
A|-3-3-3-3-3-3-3-3-|--8--8--8--8--8--8--8--8-|--8--8--8--8--8--8--8--8-|-10-10-10-10-10-10-10-10-|
E|-----------------|-------------------------|-------------------------|-------------------------|

[Pre-Chorus]
e|-----------------|-----------------|------------------|
B|-----------------|-----------------|------------------|
G|-----------------|-----------------|---------------7--|
D|-3-3-3-3-3-3-3-3-|-5-5-5-5-5-5-5-5-|-7-7-7-7-7-7-7-7--|
A|-3-3-3-3-3-3-3-3-|-5-5-5-5-5-5-5-5-|-7-7-7-7-7-7-7-5--|
E|-1-1-1-1-1-1-1-1-|-3-3-3-3-3-3-3-3-|-5-5-5-5-5-5-5----|

[Chorus]
e|----------------------------------|---------------------------------|
B|----------------------------------|---------------------------------|
G|-5-5-5-5-----------------5--5-5-5-|-5-5-5-5-------------------------|
D|-5-5-5-5-7-7-7-7--5-5-5--5--5-5-5-|-5-5-5-5-7-7-7-7--5-5-5-5-5-5-5--|
A|-3-3-3-3-7-7-7-7--5-5-5--3--3-3-3-|-3-3-3-3-7-7-7-7--5-5-5-5-5-5-5--|
E|---------5-5-5-5--3-3-3-----------|---------5-5-5-5--3-3-3-3-3-3-3--|

e|----------------------------------|----------------------------------|
B|----------------------------------|----------------------------------|
G|-5-5-5-5-----------------5--5-5-5-|-5-5-5-5-----------------5-5-5-5--|
D|-5-5-5-5--7-7-7-7-5-5-5--5--5-5-5-|-5-5-5-5--3-3-3-3-5-5-5--5-5-5-5--|
A|-3-3-3-3--7-7-7-7-5-5-5--3--3-3-3-|-3-3-3-3--3-3-3-3-5-5-5--3-3-3-3--|
E|----------5-5-5-5-3-3-3-----------|----------1-1-1-1-3-3-3-----------|

[Outro]
e|----------------------------------|---------------------------------|
B|----------------------------------|---------------------------------|
G|-5-5-5-5-----------------5--5-5-5-|-5-5-5-5-------------------------|
D|-5-5-5-5-7-7-7-7--5-5-5--5--5-5-5-|-5-5-5-5-7-7-7-7--5-5-5-5-5-5-5--|
A|-3-3-3-3-7-7-7-7--5-5-5--3--3-3-3-|-3-3-3-3-7-7-7-7--5-5-5-5-5-5-5--|
E|---------5-5-5-5--3-3-3-----------|---------5-5-5-5--3-3-3-3-3-3-3--|

e|----------------------------------|----------------------------|
B|----------------------------------|----------------------------|
G|-5-5-5-5-----------------5--5-5-5-|-5-5-5-5-----------------5--|
D|-5-5-5-5--7-7-7-7-5-5-5--5--5-5-5-|-5-5-5-5--3-3-3-3-5-5-5--5--|
A|-3-3-3-3--7-7-7-7-5-5-5--3--3-3-3-|-3-3-3-3--3-3-3-3-5-5-5--3--|
E|----------5-5-5-5-3-3-3-----------|----------1-1-1-1-3-3-3-----|            
Submit corrections


         lessons Hard to play? Try these video lessons and learn fast  lessons
        
↑ Back to top | Tablatures and chords for acoustic guitar and electric guitar, ukulele, drums are parodies/interpretations of the original songs. You may use it for private study, scholarship, research or language learning purposes only