Home » R » Rancid »

Rancid - I Kept A Promise Tabs

Artists:  A B C D E F G H I J K L M N O P Q R S T U V W X Y Z # 

I Kept A Promise Tabs

(ver. 1) Click to play this song!
Rancid
[Intro]

e|----------------------------|---------------------------------------------|
B|----------------------------|---------------------------------------------|
G|----------9-9-----7-7---7---|----------9-9-----7-7---7---7h8-9--9--9-9-9--|
D|------8-8-----9-9-----9---9-|------8-8-----9-9-----9---9------------------|
A|--7-7-----------------------|--7-7----------------------------------------|
E|----------------------------|---------------------------------------------|

e|------------------|------------------------|
B|--7-7-------------|------------------------|
G|------9-9-7-7-9-7-|-9--9-9-7-7-7-6-6-6--4--|
D|------------------|------------------------|
A|------------------|------------------------|
E|------------------|------------------------|


[Chorus 1]

e|-----|-------------------|------------|-------------------|--------|
B|-----|-------------------|------------|-------------------|--------|
G|-----|-------------------|------------|-------------------|--------|
D|--2--|-2-2-2-2-2-2-2-2-2-|--7--7---2--|-2-2-2-2-2-2-2-2-2-|--7--7--|
A|--2--|-2-2-2-2-2-2-2-2-2-|--7--7---2--|-2-2-2-2-2-2-2-2-2-|--7--7--|
E|--0--|-0-0-0-0-0-0-0-0-0-|--5--5---0--|-0-0-0-0-0-0-0-0-0-|--5--5--|
                PM                               PM
e|------------------------------------|----------------------------|
B|------------------------------------|----------------------------|
G|------------------------------------|-9-x-9-x-9-x-9-x-9-x-9-x-9--|
D|--7--7-7-7-7-7-7---9--9-9-9-9-9-9-9-|-9-x-9-x-9-x-9-x-9-x-9-x-9--|
A|--7--7-7-7-7-7-7---9--9-9-9-9-9-9-9-|-7-x-7-x-7-x-7-x-7-x-7-x-7--|
E|--5--5-5-5-5-5-5---7--7-7-7-7-7-7-7-|----------------------------|


[Verse 1]

e|-----------------|-----------------|-----------------------|----------------|
B|-----------------|-----------------|-----------------------|----------------|
G|-----------------|-----------------|-----------------------|----------------|
D|--7--7--7-7-7-7--|--9--9--9-9-9-9--|--11--11--11-11-11-11--|-4--4--4-4-4-4--|
A|--7--7--7-7-7-7--|--9--9--9-9-9-9--|--11--11--11-11-11-11--|-4--4--4-4-4-4--|
E|--5--5--5-5-5-5--|--7--7--7-7-7-7--|---9---9---9--9--9--9--|-2--2--2-2-2-2--|

e|-----------------|-----------------|----------------------------|
B|-----------------|-----------------|----------------------------|
G|-----------------|-----------------|-9-x-9-x-9-x-9-x-9-x-9-x-9--|
D|--7--7--7-7-7-7--|--9--9--9-9-9-9--|-9-x-9-x-9-x-9-x-9-x-9-x-9--|
A|--7--7--7-7-7-7--|--9--9--9-9-9-9--|-7-x-7-x-7-x-7-x-7-x-7-x-7--|
E|--5--5--5-5-5-5--|--7--7--7-7-7-7--|----------------------------|

e|-----------------|-----------------|-----------------------|----------------|
B|-----------------|-----------------|-----------------------|----------------|
G|-----------------|-----------------|-----------------------|----------------|
D|--7--7--7-7-7-7--|--9--9--9-9-9-9--|--11--11--11-11-11-11--|-4--4--4-4-4-4--|
A|--7--7--7-7-7-7--|--9--9--9-9-9-9--|--11--11--11-11-11-11--|-4--4--4-4-4-4--|
E|--5--5--5-5-5-5--|--7--7--7-7-7-7--|---9---9---9--9--9--9--|-2--2--2-2-2-2--|

e|-----------------|-----------------|--------------------------------|
B|-----------------|-----------------|--------------------------------|
G|-----------------|-----------------|-9-x-9-x-9-x-9-x----------------|
D|--7--7--7-7-7-7--|--9--9--9-9-9-9--|-9-x-9-x-9-x-9-x-9-9-9-9-9-9-9--|
A|--7--7--7-7-7-7--|--9--9--9-9-9-9--|-7-x-7-x-7-x-7-x-9-9-9-9-9-9-9--|
E|--5--5--5-5-5-5--|--7--7--7-7-7-7--|-----------------7-7-7-7-7-7-7--|


[Chorus 2]

e|-----|-------------------|------------|-------------------|--------|
B|-----|-------------------|------------|-------------------|--------|
G|-----|-------------------|------------|-------------------|--------|
D|--2--|-2-2-2-2-2-2-2-2-2-|--7--7---2--|-2-2-2-2-2-2-2-2-2-|--7--7--|
A|--2--|-2-2-2-2-2-2-2-2-2-|--7--7---2--|-2-2-2-2-2-2-2-2-2-|--7--7--|
E|--0--|-0-0-0-0-0-0-0-0-0-|--5--5---0--|-0-0-0-0-0-0-0-0-0-|--5--5--|
                PM                               PM
e|------------------------------------|----------------------------|
B|------------------------------------|----------------------------|
G|------------------------------------|-9-x-9-x-9-x-9-x-9-x-9-x-9--|
D|--7--7-7-7-7-7-7---9--9-9-9-9-9-9-9-|-9-x-9-x-9-x-9-x-9-x-9-x-9--|
A|--7--7-7-7-7-7-7---9--9-9-9-9-9-9-9-|-7-x-7-x-7-x-7-x-7-x-7-x-7--|
E|--5--5-5-5-5-5-5---7--7-7-7-7-7-7-7-|----------------------------|


[Verse 2]

e|-----------------|-----------------|-----------------------|----------------|
B|-----------------|-----------------|-----------------------|----------------|
G|-----------------|-----------------|-----------------------|----------------|
D|--7--7--7-7-7-7--|--9--9--9-9-9-9--|--11--11--11-11-11-11--|-4--4--4-4-4-4--|
A|--7--7--7-7-7-7--|--9--9--9-9-9-9--|--11--11--11-11-11-11--|-4--4--4-4-4-4--|
E|--5--5--5-5-5-5--|--7--7--7-7-7-7--|---9---9---9--9--9--9--|-2--2--2-2-2-2--|

e|-----------------|-----------------|----------------------------|
B|-----------------|-----------------|----------------------------|
G|-----------------|-----------------|-9-x-9-x-9-x-9-x-9-x-9-x-9--|
D|--7--7--7-7-7-7--|--9--9--9-9-9-9--|-9-x-9-x-9-x-9-x-9-x-9-x-9--|
A|--7--7--7-7-7-7--|--9--9--9-9-9-9--|-7-x-7-x-7-x-7-x-7-x-7-x-7--|
E|--5--5--5-5-5-5--|--7--7--7-7-7-7--|----------------------------|

e|-----------------|-----------------|-----------------------|----------------|
B|-----------------|-----------------|-----------------------|----------------|
G|-----------------|-----------------|-----------------------|----------------|
D|--7--7--7-7-7-7--|--9--9--9-9-9-9--|--11--11--11-11-11-11--|-4--4--4-4-4-4--|
A|--7--7--7-7-7-7--|--9--9--9-9-9-9--|--11--11--11-11-11-11--|-4--4--4-4-4-4--|
E|--5--5--5-5-5-5--|--7--7--7-7-7-7--|---9---9---9--9--9--9--|-2--2--2-2-2-2--|

e|-----------------|-----------------|--------------------------------|
B|-----------------|-----------------|--------------------------------|
G|-----------------|-----------------|-9-x-9-x-9-x-9-x----------------|
D|--7--7--7-7-7-7--|--9--9--9-9-9-9--|-9-x-9-x-9-x-9-x-9-9-9-9-9-9-9--|
A|--7--7--7-7-7-7--|--9--9--9-9-9-9--|-7-x-7-x-7-x-7-x-9-9-9-9-9-9-9--|
E|--5--5--5-5-5-5--|--7--7--7-7-7-7--|-----------------7-7-7-7-7-7-7--|


[Chorus 3]

e|-----|-------------------|------------|-------------------|--------|
B|-----|-------------------|------------|-------------------|--------|
G|-----|-------------------|------------|-------------------|--------|
D|--2--|-2-2-2-2-2-2-2-2-2-|--7--7---2--|-2-2-2-2-2-2-2-2-2-|--7--7--|
A|--2--|-2-2-2-2-2-2-2-2-2-|--7--7---2--|-2-2-2-2-2-2-2-2-2-|--7--7--|
E|--0--|-0-0-0-0-0-0-0-0-0-|--5--5---0--|-0-0-0-0-0-0-0-0-0-|--5--5--|
                PM                               PM
e|------------------------------------|--------------------|
B|------------------------------------|--------------------|
G|------------------------------------|-9-x-9-x-9-x-9------|
D|--7--7-7-7-7-7-7---9--9-9-9-9-9-9-9-|-9-x-9-x-9-x-9--\\--|
A|--7--7-7-7-7-7-7---9--9-9-9-9-9-9-9-|-7-x-7-x-7-x-7--\\--|
E|--5--5-5-5-5-5-5---7--7-7-7-7-7-7-7-|----------------\\--|


[Verse 3]

e|-----------------|-----------------|-----------------------|----------------|
B|-----------------|-----------------|-----------------------|----------------|
G|-----------------|-----------------|-----------------------|----------------|
D|--7--7--7-7-7-7--|--9--9--9-9-9-9--|--11--11--11-11-11-11--|-4--4--4-4-4-4--|
A|--7--7--7-7-7-7--|--9--9--9-9-9-9--|--11--11--11-11-11-11--|-4--4--4-4-4-4--|
E|--5--5--5-5-5-5--|--7--7--7-7-7-7--|---9---9---9--9--9--9--|-2--2--2-2-2-2--|

e|-----------------|-----------------|----------------------------|
B|-----------------|-----------------|----------------------------|
G|-----------------|-----------------|-9-x-9-x-9-x-9-x-9-x-9-x-9--|
D|--7--7--7-7-7-7--|--9--9--9-9-9-9--|-9-x-9-x-9-x-9-x-9-x-9-x-9--|
A|--7--7--7-7-7-7--|--9--9--9-9-9-9--|-7-x-7-x-7-x-7-x-7-x-7-x-7--|
E|--5--5--5-5-5-5--|--7--7--7-7-7-7--|----------------------------|

e|-----------------|-----------------|-----------------------|----------------|
B|-----------------|-----------------|-----------------------|----------------|
G|-----------------|-----------------|-----------------------|----------------|
D|--7--7--7-7-7-7--|--9--9--9-9-9-9--|--11--11--11-11-11-11--|-4--4--4-4-4-4--|
A|--7--7--7-7-7-7--|--9--9--9-9-9-9--|--11--11--11-11-11-11--|-4--4--4-4-4-4--|
E|--5--5--5-5-5-5--|--7--7--7-7-7-7--|---9---9---9--9--9--9--|-2--2--2-2-2-2--|

e|-----------------|-----------------|--------------------------------|
B|-----------------|-----------------|--------------------------------|
G|-----------------|-----------------|-9-x-9-x-9-x-9-x----------------|
D|--7--7--7-7-7-7--|--9--9--9-9-9-9--|-9-x-9-x-9-x-9-x-9-9-9-9-9-9-9--|
A|--7--7--7-7-7-7--|--9--9--9-9-9-9--|-7-x-7-x-7-x-7-x-9-9-9-9-9-9-9--|
E|--5--5--5-5-5-5--|--7--7--7-7-7-7--|-----------------7-7-7-7-7-7-7--|


[Chorus 4]

e|-----|-------------------|------------|-------------------|--------|
B|-----|-------------------|------------|-------------------|--------|
G|-----|-------------------|------------|-------------------|--------|
D|--2--|-2-2-2-2-2-2-2-2-2-|--7--7---2--|-2-2-2-2-2-2-2-2-2-|--7--7--|
A|--2--|-2-2-2-2-2-2-2-2-2-|--7--7---2--|-2-2-2-2-2-2-2-2-2-|--7--7--|
E|--0--|-0-0-0-0-0-0-0-0-0-|--5--5---0--|-0-0-0-0-0-0-0-0-0-|--5--5--|
                PM                               PM
e|------------------------------------|--------------------------------|
B|------------------------------------|--------------------------------|
G|------------------------------------|-9-x-9-x-9-x-9--9-9-9-9-9-9-9-9-|
D|--7--7-7-7-7-7-7---9--9-9-9-9-9-9-9-|-9-x-9-x-9-x-9--9-9-9-9-9-9-9-9-|
A|--7--7-7-7-7-7-7---9--9-9-9-9-9-9-9-|-7-x-7-x-7-x-7--7-7-7-7-7-7-7-7-|
E|--5--5-5-5-5-5-5---7--7-7-7-7-7-7-7-|--------------------------------|


[Solo]

e|--4--------2--------5--------7--------|--4--------2--------5----------7-------7-------|
B|----5--------2--------5--------7------|----5--------2--------5----------7-------7-----|
G|------6--------3--------6--------8----|------6--------3--------6----------8-------8---|
D|--------6--------4--------7--------9--|--------6--------4--------7----------9-------9-|
A|--------------------------------------|-----------------------------------------------|
E|--------------------------------------|-----------------------------------------------|


[Chorus 5]

e|-----|-------------------|------------|-------------------|--------|
B|-----|-------------------|------------|-------------------|--------|
G|-----|-------------------|------------|-------------------|--------|
D|--2--|-2-2-2-2-2-2-2-2-2-|--7--7---2--|-2-2-2-2-2-2-2-2-2-|--7--7--|
A|--2--|-2-2-2-2-2-2-2-2-2-|--7--7---2--|-2-2-2-2-2-2-2-2-2-|--7--7--|
E|--0--|-0-0-0-0-0-0-0-0-0-|--5--5---0--|-0-0-0-0-0-0-0-0-0-|--5--5--|
                PM                               PM
e|------------------------------------|----------------------------|
B|------------------------------------|----------------------------|
G|------------------------------------|-9-x-9-x-9-x-9-x-9-x-9-x-9--|
D|--7--7-7-7-7-7-7---9--9-9-9-9-9-9-9-|-9-x-9-x-9-x-9-x-9-x-9-x-9--|
A|--7--7-7-7-7-7-7---9--9-9-9-9-9-9-9-|-7-x-7-x-7-x-7-x-7-x-7-x-7--|
E|--5--5-5-5-5-5-5---7--7-7-7-7-7-7-7-|----------------------------|

e|-----|-------------------|------------|-------------------|--------|
B|-----|-------------------|------------|-------------------|--------|
G|-----|-------------------|------------|-------------------|--------|
D|--2--|-2-2-2-2-2-2-2-2-2-|--7--7---2--|-2-2-2-2-2-2-2-2-2-|--7--7--|
A|--2--|-2-2-2-2-2-2-2-2-2-|--7--7---2--|-2-2-2-2-2-2-2-2-2-|--7--7--|
E|--0--|-0-0-0-0-0-0-0-0-0-|--5--5---0--|-0-0-0-0-0-0-0-0-0-|--5--5--|
                PM                               PM
e|------------------------------------|----------------------------|
B|------------------------------------|----------------------------|
G|------------------------------------|-9-x-9-x-9-x-9-x-9-x-9-x-9--|
D|--7--7-7-7-7-7-7---9--9-9-9-9-9-9-9-|-9-x-9-x-9-x-9-x-9-x-9-x-9--|
A|--7--7-7-7-7-7-7---9--9-9-9-9-9-9-9-|-7-x-7-x-7-x-7-x-7-x-7-x-7--|
E|--5--5-5-5-5-5-5---7--7-7-7-7-7-7-7-|----------------------------|


[Outro]

e|----------------------------------------|
B|----------------------------------------|
G|-------------------------------------9--|
D|--7--7-7-7-7-7-7---9--9-9-9-9-9-9-9--9--|
A|--7--7-7-7-7-7-7---9--9-9-9-9-9-9-9--7--|
E|--5--5-5-5-5-5-5---7--7-7-7-7-7-7-7-----|            
Submit corrections

↑ Back to top | Tablatures and chords for acoustic guitar and electric guitar, ukulele, drums are parodies/interpretations of the original songs. You may use it for private study, scholarship, research or language learning purposes only