» » »

Rancid - Farewell Lola Blue Tabs

Artists:  A B C D E F G H I J K L M N O P Q R S T U V W X Y Z # 

Farewell Lola Blue Tabs

(ver. 1) Click to play this song!
Rancid
 Rating:
4.4/5 (5 votes)

 Farewell Lola Blue lessons Tabs too difficult? Try these video lessons and learn fast
 
                [Intro]

e|-----------------|-----------------|-----------------|-----------------|
B|-----------------|-----------------|-----------------|-----------------|
G|-----------------|-----------------|-7-7-7-7-7-7-7-7-|-----------------|
D|-7-7-7-7-7-7-7-7-|-2-2-2-2-2-2-2-2-|-7-7-7-7-7-7-7-7-|-7-7-7-7-7-7-7-7-| (x2)
A|-7-7-7-7-7-7-7-7-|-2-2-2-2-2-2-2-2-|-5-5-5-5-5-5-5-5-|-7-7-7-7-7-7-7-7-|
E|-5-5-5-5-5-5-5-5-|-0-0-0-0-0-0-0-0-|-----------------|-5-5-5-5-5-5-5-5-|
         PM                PM                PM                PM

[Verse 1]

e|-2--2-2-------------------------|-2--2-2----------|-----------------|
B|-3--3-3-----------0--0-0--0-0-0-|-3--3-3----------|-----------------|
G|-2--2-2--2-2-2-2--1--1-1--1-1-1-|-2--2-2--2-2-2-2-|-9-9-9-9-9-9-9-9-|
D|-0--0-0--2-2-2-2--2--2-2--2-2-2-|-0--0-0--2-2-2-2-|-9-9-9-9-9-9-9-9-|
A|---------0-0-0-0--2--2-2--2-2-2-|---------0-0-0-0-|-7-7-7-7-7-7-7-7-|
E|------------------0--0-0--0-0-0-|-----------------|-----------------|
                                                            PM
e|-2--2-2------------------------------|-----------------|
B|-3--3-3-----------0--0-0--0-0-0---0--|-----------------|
G|-2--2-2--2-2-2-2--1--1-1--1-1-1---1--|-1-1-1-1-1-1-1-1-|
D|-0--0-0--2-2-2-2--2--2-2--2-2-2---2--|-2-2-2-2-2-2-2-2-|
A|---------0-0-0-0--2--2-2--2-2-2---2--|-2-2-2-2-2-2-2-2-|
E|------------------0--0-0--0-0-0---0--|-----------------|
                                               PM

[Chorus 1]

e|--------------|--------------|-2-2--2-2-2-2-|--------------|
B|--------------|-0-0--0-0-0-0-|-3-3--3-3-3-3-|--------------|
G|-2-2--2-2-2-2-|-1-1--1-1-1-1-|-2-2--2-2-2-2-|-2-2--2-2-2-2-|
D|-2-2--2-2-2-2-|-2-2--2-2-2-2-|-0-0--0-0-0-0-|-2-2--2-2-2-2-| (x2)
A|-0-0--0-0-0-0-|-2-2--2-2-2-2-|--------------|-0-0--0-0-0-0-|
E|--------------|-0-0--0-0-0-0-|--------------|--------------|


[Verse 2]

e|-2--2-2-------------------------|-2--2-2----------|-----------------|
B|-3--3-3-----------0--0-0--0-0-0-|-3--3-3----------|-----------------|
G|-2--2-2--2-2-2-2--1--1-1--1-1-1-|-2--2-2--2-2-2-2-|-9-9-9-9-9-9-9-9-|
D|-0--0-0--2-2-2-2--2--2-2--2-2-2-|-0--0-0--2-2-2-2-|-9-9-9-9-9-9-9-9-|
A|---------0-0-0-0--2--2-2--2-2-2-|---------0-0-0-0-|-7-7-7-7-7-7-7-7-|
E|------------------0--0-0--0-0-0-|-----------------|-----------------|
                                                            PM
e|-2--2-2------------------------------|-----------------|
B|-3--3-3-----------0--0-0--0-0-0---0--|-----------------|
G|-2--2-2--2-2-2-2--1--1-1--1-1-1---1--|-1-1-1-1-1-1-1-1-|
D|-0--0-0--2-2-2-2--2--2-2--2-2-2---2--|-2-2-2-2-2-2-2-2-|
A|---------0-0-0-0--2--2-2--2-2-2---2--|-2-2-2-2-2-2-2-2-|
E|------------------0--0-0--0-0-0---0--|-----------------|
                                               PM

[Chorus 2]

e|--------------|--------------|-2-2--2-2-2-2-|--------------|
B|--------------|-0-0--0-0-0-0-|-3-3--3-3-3-3-|--------------|
G|-2-2--2-2-2-2-|-1-1--1-1-1-1-|-2-2--2-2-2-2-|-2-2--2-2-2-2-|
D|-2-2--2-2-2-2-|-2-2--2-2-2-2-|-0-0--0-0-0-0-|-2-2--2-2-2-2-| (x2)
A|-0-0--0-0-0-0-|-2-2--2-2-2-2-|--------------|-0-0--0-0-0-0-|
E|--------------|-0-0--0-0-0-0-|--------------|--------------|


[Bridge]

e|-------------------------------|------------------|
B|-------------------------------|------------------|
G|--------7-7-7--9-9-9-9-9-9-9-9-|--------7-7-7--9--|
D|-4-4--x-7-7-7--9-9-9-9-9-9-9-9-|-4-4--x-7-7-7--9--|
A|-4-4--x-5-5-5--7-7-7-7-7-7-7-7-|-4-4--x-5-5-5--7--|
E|-2-2--x------------------------|-2-2--x-----------|

e|-------------------------------|-------------------------------|------|
B|-------------------------------|-------------------------------|------|
G|--------7-7-7--9-9-9-9-9-9-9-9-|--------7-7-7--9-9-9-9-9-9-9-9-|------|
D|-4-4--x-7-7-7--9-9-9-9-9-9-9-9-|-4-4--x-7-7-7--9-9-9-9-9-9-9-9-|--7\--|
A|-4-4--x-5-5-5--7-7-7-7-7-7-7-7-|-4-4--x-5-5-5--7-7-7-7-7-7-7-7-|--7\--|
E|-2-2--x------------------------|-2-2--x------------------------|--5\--|


[Verse 3]

e|---9----10-----9--|
B|--10----10----10--|
G|---9----11-----9--|
D|------------------|
A|------------------|
E|------------------|

e|-----------------|-----------------|-----------------|-----------------|
B|-----------------|-----------------|-----------------|-----------------|
G|-----------------|-----------------|-7-7-7-7-7-7-7-7-|-----------------|
D|-7-7-7-7-7-7-7-7-|-2-2-2-2-2-2-2-2-|-7-7-7-7-7-7-7-7-|-7-7-7-7-7-7-7-7-| 
A|-7-7-7-7-7-7-7-7-|-2-2-2-2-2-2-2-2-|-5-5-5-5-5-5-5-5-|-7-7-7-7-7-7-7-7-|
E|-5-5-5-5-5-5-5-5-|-0-0-0-0-0-0-0-0-|-----------------|-5-5-5-5-5-5-5-5-|
         PM                PM                PM                PM
e|-----------------|-----------------|-----------------|-----------------|
B|-----------------|-----------------|-----------------|-----------------|
G|-----------------|-----------------|-7-7-7-7-7-7-7-7-|-----------------|
D|-7-7-7-7-7-7-7-7-|-2-2-2-2-2-2-2-2-|-7-7-7-7-7-7-7-7-|-7-7-7-7-7-7-7-7-| 
A|-7-7-7-7-7-7-7-7-|-2-2-2-2-2-2-2-2-|-5-5-5-5-5-5-5-5-|-7-7-7-7-7-7-7-7-|
E|-5-5-5-5-5-5-5-5-|-0-0-0-0-0-0-0-0-|-----------------|-5-5-5-5-5-5-5-5-|
         PM                PM                PM          


[Solo]

e|---------------------------|-----------------|---------------------------|
B|---------------------------|-----------------|---------------------------|
G|----9----9-----------------|----9----9--7----|----9----9-----------------|
D|-7----7--------7h9-----7h9-|-7----7-----9b11-|-7----7--------7h9-----7h9-|
A|-----------7h9-----7h9-----|-----------------|-----------7h9-----7h9-----|
E|---------------------------|-----------------|---------------------------|

e|--------------------------------|
B|-------------7-9-9-9-9--7-9-10~-|
G|-6--6-6-7-9---------------------|
D|--------------------------------|
A|--------------------------------|
E|--------------------------------|


[Chorus]

e|--------------|--------------|-2-2--2-2-2-2-|--------------|
B|--------------|-0-0--0-0-0-0-|-3-3--3-3-3-3-|--------------|
G|-2-2--2-2-2-2-|-1-1--1-1-1-1-|-2-2--2-2-2-2-|-2-2--2-2-2-2-|
D|-2-2--2-2-2-2-|-2-2--2-2-2-2-|-0-0--0-0-0-0-|-2-2--2-2-2-2-| (x4)
A|-0-0--0-0-0-0-|-2-2--2-2-2-2-|--------------|-0-0--0-0-0-0-|
E|--------------|-0-0--0-0-0-0-|--------------|--------------|


[Outro]
(Fade out slowly)
e|--------------|--------------|-2-2--2-2-2-2-|--------------|
B|--------------|-0-0--0-0-0-0-|-3-3--3-3-3-3-|--------------|
G|-2-2--2-2-2-2-|-1-1--1-1-1-1-|-2-2--2-2-2-2-|-2-2--2-2-2-2-|
D|-2-2--2-2-2-2-|-2-2--2-2-2-2-|-0-0--0-0-0-0-|-2-2--2-2-2-2-| (x4)
A|-0-0--0-0-0-0-|-2-2--2-2-2-2-|--------------|-0-0--0-0-0-0-|
E|--------------|-0-0--0-0-0-0-|--------------|--------------|
            
Submit corrections


        Farewell Lola Blue lessons Hard to play? Try these video lessons and learn fast Farewell Lola Blue lessons
        
↑ Back to top | Tablatures and chords for acoustic guitar and electric guitar, ukulele, drums are parodies/interpretations of the original songs. You may use it for private study, scholarship, research or language learning purposes only