Home » R » Rancid »

Rancid - End Of The World Tonight Tabs

Artists:  A B C D E F G H I J K L M N O P Q R S T U V W X Y Z # 

End Of The World Tonight Tabs

(ver. 1) Click to play this song!
Rancid
(intro)
E--7---10-10-9-9--7-7----10-10-9-9----7------5-6-7--10-10-9-9-7-7---10-10-9--12-----
B---------------------------------------10--------------------------------------
G------------------------------------------------------------------------------
D-----------------------------------------------------------------------------
A------------------------------------------------------------------------------
E------------------------------------------------------------------------------

E---7-7-9-11--7-7-9-11-7-7-9-11-12-11-9-7---7777777-----------------------
B---------------------------------------------------------------------------
G---------------------------------------------------------------------------
D---------------------------------------------------------------------------
A-------------------------------------------------------------------------------
E------------------------------------------------------------------------------

verse,           *  *  reapeat those 2 cords with sum palm muting
E-------------------------------------------------
B-------------------------------------------------
G----------------4---------------------------------
D----------------4--2-------------------------------
A--0-1-2-0-2-----2--2--------------------------------
E-------------------0------------------------------
                        reapeat thruout verse
corus
E-------------------------------------------------
B-------------------------------------------------
G--4-------6-------9---------------------------------
D--4-------6-------9---------------------------------
A--2-------4-------7---------------------------------
E-------------------------------------------------

u get the basic idea, i will be havin tabbin summore rancid/op ivy/nofx songs thruout the summer so watchout.......
            
Submit corrections

↑ Back to top | Tablatures and chords for acoustic guitar and electric guitar, ukulele, drums are parodies/interpretations of the original songs. You may use it for private study, scholarship, research or language learning purposes only