» » »

Rancid - Tabs

Artists:  A B C D E F G H I J K L M N O P Q R S T U V W X Y Z # 

Tabs

(ver. 1) Click to play this song!
Rancid
 Rating:
4.3/5 (26 votes)

  lessons Tabs too difficult? Try these video lessons and learn fast
 
                [Intro]
e|----------------------|----------------------|----------------------|----------------------|
B|----------------------|----------------------|----------------------|----------------------|
G|----------------------|----------------------|----------------------|----------------------|
D|--10--10--12--13--12--|--10--10--12--13--12--|--10--10--12--13--12--|--10--10--12--13--12--| (x2)
A|---8---8---8---8---8--|---8---8---8---8---8--|---8---8---8---8---8--|---8---8---8---8---8--|
E|----------------------|----------------------|----------------------|----------------------|

e|----------------------|----------------------|-------------------|---------------------------|
B|----------------------|----------------------|-------------------|---------------------------|
G|----------------------|----------------------|-------------------|---------------------------|
D|--10--10--12--13--12--|--10--10--12--13--12--|--8-8-8-8-8-8-8-8--|--10-10-10-10-10-10-10-10--| (x2)
A|---8---8---8---8---8--|---8---8---8---8---8--|--8-8-8-8-8-8-8-8--|--10-10-10-10-10-10-10-10--|
E|----------------------|----------------------|--6-6-6-6-6-6-6-6--|---8--8--8--8--8--8--8--8--|

[Verse 1]
e|----------------------|----------------------|-------------------|---------------------------|
B|----------------------|----------------------|-------------------|---------------------------|
G|----------------------|----------------------|-------------------|---------------------------|
D|--10--10--12--13--12--|--10--10--12--13--12--|--8-8-8-8-8-8-8-8--|--10-10-10-10-10-10-10-10--| (x4)
A|---8---8---8---8---8--|---8---8---8---8---8--|--8-8-8-8-8-8-8-8--|--10-10-10-10-10-10-10-10--|
E|----------------------|----------------------|--6-6-6-6-6-6-6-6--|---8--8--8--8--8--8--8--8--|

[Chorus]
e|-----------------|-----------------|-------------------------|-------------------------|
B|-----------------|-----------------|-------------------------|-------------------------|
G|-----------------|-----------------|-------------------------|-------------------------|
D|-8-8-8-8-8-8-8-8-|-8-8-8-8-8-8-8-8-|-10-10-10-10-10-10-10-10-|-10-10-10-10-10-10-10-10-|
A|-8-8-8-8-8-8-8-8-|-8-8-8-8-8-8-8-8-|-10-10-10-10-10-10-10-10-|-10-10-10-10-10-10-10-10-|
E|-6-6-6-6-6-6-6-6-|-6-6-6-6-6-6-6-6-|--8--8--8--8--8--8--8--8-|--8--8--8--8--8--8--8--8-|

e|-----------------|-----------------|-------------------------|-------------------------|
B|-----------------|-----------------|-------------------------|-------------------------|
G|-----------------|-----------------|-------------------------|-------------------------|
D|-8-8-8-8-8-8-8-8-|-8-8-8-8-8-8-8-8-|-10-10-10-10-10-10-10-10-|-10-10-10-10-10-10-10-10-|
A|-8-8-8-8-8-8-8-8-|-8-8-8-8-8-8-8-8-|-10-10-10-10-10-10-10-10-|-10-10-10-10-10-10-10-10-|
E|-6-6-6-6-6-6-6-6-|-6-6-6-6-6-6-6-6-|--8--8--8--8--8--8--8--8-|--8--8--8--8--8--8--8--8-|

[Verse 2]
e|----------------------|----------------------|-------------------|---------------------------|
B|----------------------|----------------------|-------------------|---------------------------|
G|----------------------|----------------------|-------------------|---------------------------|
D|--10--10--12--13--12--|--10--10--12--13--12--|--8-8-8-8-8-8-8-8--|--10-10-10-10-10-10-10-10--| (x5)
A|---8---8---8---8---8--|---8---8---8---8---8--|--8-8-8-8-8-8-8-8--|--10-10-10-10-10-10-10-10--|
E|----------------------|----------------------|--6-6-6-6-6-6-6-6--|---8--8--8--8--8--8--8--8--|

[Chorus]
e|-----------------|-----------------|-------------------------|-------------------------|
B|-----------------|-----------------|-------------------------|-------------------------|
G|-----------------|-----------------|-------------------------|-------------------------|
D|-8-8-8-8-8-8-8-8-|-8-8-8-8-8-8-8-8-|-10-10-10-10-10-10-10-10-|-10-10-10-10-10-10-10-10-|
A|-8-8-8-8-8-8-8-8-|-8-8-8-8-8-8-8-8-|-10-10-10-10-10-10-10-10-|-10-10-10-10-10-10-10-10-|
E|-6-6-6-6-6-6-6-6-|-6-6-6-6-6-6-6-6-|--8--8--8--8--8--8--8--8-|--8--8--8--8--8--8--8--8-|

e|-----------------|-----------------|-------------------------|-------------------------|
B|-----------------|-----------------|-------------------------|-------------------------|
G|-----------------|-----------------|-------------------------|-------------------------|
D|-8-8-8-8-8-8-8-8-|-8-8-8-8-8-8-8-8-|-10-10-10-10-10-10-10-10-|-10-10-10-10-10-10-10-10-|
A|-8-8-8-8-8-8-8-8-|-8-8-8-8-8-8-8-8-|-10-10-10-10-10-10-10-10-|-10-10-10-10-10-10-10-10-|
E|-6-6-6-6-6-6-6-6-|-6-6-6-6-6-6-6-6-|--8--8--8--8--8--8--8--8-|--8--8--8--8--8--8--8--8-|

[Solo]
e|----------------------|----------------------|-------------------|---------------------------|
B|----------------------|----------------------|-------------------|---------------------------|
G|----------------------|----------------------|-------------------|---------------------------|
D|--10--10--12--13--12--|--10--10--12--13--12--|--8-8-8-8-8-8-8-8--|--10-10-10-10-10-10-10-10--| (x2)
A|---8---8---8---8---8--|---8---8---8---8---8--|--8-8-8-8-8-8-8-8--|--10-10-10-10-10-10-10-10--|
E|----------------------|----------------------|--6-6-6-6-6-6-6-6--|---8--8--8--8--8--8--8--8--|

e|-----------------|-----------------|-------------------------|-------------------------|
B|-----------------|-----------------|-------------------------|-------------------------|
G|-----------------|-----------------|-------------------------|-------------------------|
D|-8-8-8-8-8-8-8-8-|-8-8-8-8-8-8-8-8-|-10-10-10-10-10-10-10-10-|-10-10-10-10-10-10-10-10-|
A|-8-8-8-8-8-8-8-8-|-8-8-8-8-8-8-8-8-|-10-10-10-10-10-10-10-10-|-10-10-10-10-10-10-10-10-|
E|-6-6-6-6-6-6-6-6-|-6-6-6-6-6-6-6-6-|--8--8--8--8--8--8--8--8-|--8--8--8--8--8--8--8--8-|

e|-----------------|-----------------|-------------------------|-------------------------|
B|-----------------|-----------------|-------------------------|-------------------------|
G|-----------------|-----------------|-------------------------|-------------------------|
D|-8-8-8-8-8-8-8-8-|-8-8-8-8-8-8-8-8-|-10-10-10-10-10-10-10-10-|-10-10-10-10-10-10-10-10-|
A|-8-8-8-8-8-8-8-8-|-8-8-8-8-8-8-8-8-|-10-10-10-10-10-10-10-10-|-10-10-10-10-10-10-10-10-|
E|-6-6-6-6-6-6-6-6-|-6-6-6-6-6-6-6-6-|--8--8--8--8--8--8--8--8-|--8--8--8--8--8--8--8--8-|

[Chorus]
e|-----------------|-----------------|-------------------------|-------------------------|
B|-----------------|-----------------|-------------------------|-------------------------|
G|-----------------|-----------------|-------------------------|-------------------------|
D|-8-8-8-8-8-8-8-8-|-8-8-8-8-8-8-8-8-|-10-10-10-10-10-10-10-10-|-10-10-10-10-10-10-10-10-|
A|-8-8-8-8-8-8-8-8-|-8-8-8-8-8-8-8-8-|-10-10-10-10-10-10-10-10-|-10-10-10-10-10-10-10-10-|
E|-6-6-6-6-6-6-6-6-|-6-6-6-6-6-6-6-6-|--8--8--8--8--8--8--8--8-|--8--8--8--8--8--8--8--8-|

e|-----------------|-----------------|-------------------------|-------------------------|
B|-----------------|-----------------|-------------------------|-------------------------|
G|-----------------|-----------------|-------------------------|-------------------------|
D|-8-8-8-8-8-8-8-8-|-8-8-8-8-8-8-8-8-|-10-10-10-10-10-10-10-10-|-10-10-10-10-10-10-10-10-|
A|-8-8-8-8-8-8-8-8-|-8-8-8-8-8-8-8-8-|-10-10-10-10-10-10-10-10-|-10-10-10-10-10-10-10-10-|
E|-6-6-6-6-6-6-6-6-|-6-6-6-6-6-6-6-6-|--8--8--8--8--8--8--8--8-|--8--8--8--8--8--8--8--8-|

[Outro]
e|-----------------|-----------------|-------------------------|-------------------------|
B|-----------------|-----------------|-------------------------|-------------------------|
G|-----------------|-----------------|-------------------------|-------------------------|
D|-8-8-8-8-8-8-8-8-|-8-8-8-8-8-8-8-8-|-10-10-10-10-10-10-10-10-|-10-10-10-10-10-10-10-10-|
A|-8-8-8-8-8-8-8-8-|-8-8-8-8-8-8-8-8-|-10-10-10-10-10-10-10-10-|-10-10-10-10-10-10-10-10-|
E|-6-6-6-6-6-6-6-6-|-6-6-6-6-6-6-6-6-|--8--8--8--8--8--8--8--8-|--8--8--8--8--8--8--8--8-|

e|-----------------|-----------------|-------------------------|-------------------------|
B|-----------------|-----------------|-------------------------|-------------------------|
G|-----------------|-----------------|-------------------------|-------------------------|
D|-8-8-8-8-8-8-8-8-|-8-8-8-8-8-8-8-8-|-10-10-10-10-10-10-10-10-|-10-10-10-10-10-10-10-10-|
A|-8-8-8-8-8-8-8-8-|-8-8-8-8-8-8-8-8-|-10-10-10-10-10-10-10-10-|-10-10-10-10-10-10-10-10-|
E|-6-6-6-6-6-6-6-6-|-6-6-6-6-6-6-6-6-|--8--8--8--8--8--8--8--8-|--8--8--8--8--8--8--8--8-|

e|------|
B|------|
G|------|
D|--10--|
A|--10--|
E|---8--|            
Submit corrections


         lessons Hard to play? Try these video lessons and learn fast  lessons
        
↑ Back to top | Tablatures and chords for acoustic guitar and electric guitar, ukulele, drums are parodies/interpretations of the original songs. You may use it for private study, scholarship, research or language learning purposes only