» » »

Rage Against The Machine - Mic Check Bass

Artists:  A B C D E F G H I J K L M N O P Q R S T U V W X Y Z # 

Mic Check Bass

(ver. 2) Click to play this song!
Rage Against The Machine
 Rating:
4/5 (4 votes)


 Mic Check lessons Tabs too difficult? Try these video lessons and learn fast
 
                -------------------------------------------------------------------------------
			     Mic Check - Rage Against The Machine
-------------------------------------------------------------------------------


Tuning: Standard

This is a very simple song but no one got a good tab for it up yet so i did.
awesome song and awesome band

Main Riff
G|----------------|
D|----4--2---2/4--|
A|----------------|
E|----------------|

Bridge
G|----------------|
D|--44------------|
A|----33--00------|
E|------22--------|

G|----------------|
D|--44------------|
A|----33----------|
E|------0022------|

quite sure this is 100% correct.
            
Submit corrections



        Mic Check lessons Hard to play? Try these video lessons and learn fast Mic Check lessons
        
↑ Back to top | Tablatures and chords for acoustic guitar and electric guitar, ukulele, drums are parodies/interpretations of the original songs. You may use it for private study, scholarship, research or language learning purposes only