» » »

Rage Against The Machine - Hadda Be Playing On The Jukebox Bass

Artists:  A B C D E F G H I J K L M N O P Q R S T U V W X Y Z # 

Hadda Be Playing On The Jukebox Bass

(ver. 1) Click to play this song!
Rage Against The Machine
 Rating:
4/5 (4 votes)


 Hadda Be Playing On The Jukebox lessons Tabs too difficult? Try these video lessons and learn fast
 
                This is my first tab, so I hope it sounds good. Also, this is the studio version, not 
live and rare version. Some things might be different from the two.

* marks harmonic

Main riff:
|-------------------12/9---12*-------|
|-------------9-----12/9------12*----|
|-----7---7----------------------12*-|
|-0~~---0----------------------------|

However, it is probably easier to learn if you start with the open E at the end.

Variations:

|-------------------14/12---12*-------|
|-------------9-----14/12------12*----|
|-----7---7-----------------------12*-|
|-0~~---0-----------------------------|

|-------------------14/12---14(/12)--|
|-------------9-----14/12---14(/12)--|
|-----7---7--------------------------|
|-0~~---0----------------------------|


Figure out the time for the variation yourself, it's not hard to pass if you pay 
to the song.
            
Submit corrections



        Hadda Be Playing On The Jukebox lessons Hard to play? Try these video lessons and learn fast Hadda Be Playing On The Jukebox lessons
        
↑ Back to top | Tablatures and chords for acoustic guitar and electric guitar, ukulele, drums are parodies/interpretations of the original songs. You may use it for private study, scholarship, research or language learning purposes only