» » »

Rage Against The Machine - Guerrilla Radio  Bass

Artists:  A B C D E F G H I J K L M N O P Q R S T U V W X Y Z # 

Guerrilla Radio  Bass

(ver. 3) Click to play this song!
Rage Against The Machine
 Rating:
4/5 (4 votes)


 Guerrilla Radio  lessons Tabs too difficult? Try these video lessons and learn fast
 
                Intro/chorus
x7                       after 7th time
G----------------------]--2---------1--------------------|
D----------------------]---------------------------------|
A------------------0-2-]---------------------------------|
E--0--2-2-0-2-0-2------]----2--0------2------0-2---------|

Verse                     Little lick
G-22-x-44-x-55--2-------]-------------------------------|
D-----------------------]--4p2--------------------------|
A-----------------------]-------4p0---------------------|
E---------------2-------]-------------------------------|


I'm not the best basser, so I'm not so sure aboyut this.... but sounds good.


Chorus/build-up                     Throw in for variation
G---------------------------------]----------------------|
D---------------------------------]-4444444444444444-----|
A------------------0-2------------]----------------------|
E--0--2-2-0-2-0-2------0--2-2-0-2-]----------------------|

Build up
G-------------------------------------------------------|
D---4444444444444444------------------------------------|
A-2-----------------------------------------------------|
E-------------------------------------------------------|


Final Lick ("All hell...")
G------------|
D------------|
A------------|
E--0-2--2/14-|
            
Submit corrections



        Guerrilla Radio  lessons Hard to play? Try these video lessons and learn fast Guerrilla Radio  lessons
        
↑ Back to top | Tablatures and chords for acoustic guitar and electric guitar, ukulele, drums are parodies/interpretations of the original songs. You may use it for private study, scholarship, research or language learning purposes only