» » »

R5 - Aint No Way Were Going Home Tabs

Artists:  A B C D E F G H I J K L M N O P Q R S T U V W X Y Z # 

Aint No Way Were Going Home Tabs

(ver. 1) Click to play this song!
R5
 Rating:
4.3/5 (25 votes)


 Aint No Way Were Going Home  lessons Tabs too difficult? Try these video lessons and learn fast
 
                
[Main riff]
e|---------------------------------------------------------------------------|
B|---7-7h9-9~--7-9b11br9--7-------7-7-7---7--7-9~----------------------------|
G|---------------------------8~---------8---8--------------------------------|
D|---------------------------------------------------------------------------|
A|---------------------------------------------------------------------------|
E|---------------------------------------------------------------------------|

e|---------------------------------------------------------------------------|
B|--9~-9~----7-9b11br9--7---------7-7-7----7-7--9/12\11~---------------------|
G|-------------------------8-------------8-----------------------------------|
D|---------------------------------------------------------------------------|
A|---------------------------------------------------------------------------|
E|---------------------------------------------------------------------------|
            
Submit corrections



        Aint No Way Were Going Home  lessons Hard to play? Try these video lessons and learn fast Aint No Way Were Going Home  lessons
        
↑ Back to top | Tablatures and chords for acoustic guitar and electric guitar, ukulele, drums are parodies/interpretations of the original songs. You may use it for private study, scholarship, research or language learning purposes only