» » »

Queens Of The Stone Age - You Think I Ain Worth A Dollar Tabs

Artists:  A B C D E F G H I J K L M N O P Q R S T U V W X Y Z # 

You Think I Ain Worth A Dollar Tabs

(ver. 1) Click to play this song!
Queens Of The Stone Age
 Rating:
4/5 (4 votes)
                verse + Intro
E--------------------------------------------------------------
B--------------------------------------------------------------
G--------------------------------------------------------------
D--------10-10-10-10-10-10-10-10-10----------------------------
A----6h8-10-10-10-10-10-10-10-10-10----------------------------
E--------8--8--8--8--8--8--8--8--8-----------------------------
         
         

chours (Guitar 1)
E--------------------------------------------------------------
B--------------------------------------------------------------
G--------------------------------------------------------------
D----7--77777777777--99----------------------------------------
A----7--77777777777--99----------------------------------------
E----5--55555555555--77----------------------------------------


Guitar 2 plays on the D scale

thats about it obviously they use effect pedals and distortion to create
the effects other than that i think thats it ney probablys contact me at 
            
Submit corrections

↑ Back to top | Tablatures and chords for acoustic guitar and electric guitar, ukulele, drums are parodies/interpretations of the original songs. You may use it for private study, scholarship, research or language learning purposes only