» » »

Queens Of The Stone Age - I Think I Lost My Headache Bass

Artists:  A B C D E F G H I J K L M N O P Q R S T U V W X Y Z # 

I Think I Lost My Headache Bass

(ver. 2) Click to play this song!
Queens Of The Stone Age
 Rating:
4/5 (4 votes)


 I Think I Lost My Headache lessons Tabs too difficult? Try these video lessons and learn fast
 
                INTRO
Eb---------------------|
Bb----7\-----7\------7-|
 F-----------------8---| Repeat
 C-5------5------5-----|

  ...end on.
Eb--------|
Bb--------|
 F--------|
 C-5~~~~~-|

VERSE
Eb----------|
Bb----5-----|
 F-5h7-7----|
 C------5-8-|

Eb-------------------------|
Bb----7-7---5--7-----5-----|
 F-------7--------5h7-7----| Repeat
 C-5~------------------5-8-|

Eb-------------------|
Bb----7-7---5--7-8~~-|
 F-------7-----------|
 C-5~----------------|

CHORUS
Eb---------------|
Bb---77--55---54-|
 F-----7---7-5---| Repeat
 C-5~------------|

Eb----------------|
Bb---77--5--7-8~~-|
 F-----7----------|
 C-5~-------------|

VERSE 2
Eb-------------|
Bb-5-------5-5-|
 F---7-5-7-----|
 C-------------|

Eb-------------------------|
Bb----7-7---5--7-----5-----|
 F-------7--------5h7-7----| Repeat
 C-5~------------------5-8-|

Eb-------------------|
Bb----7-7---5--7-8~~-|
 F-------7-----------|
 C-5~----------------|

CHORUS 2
Eb---------------|
Bb---77--55---54-|
 F-----7---7-5---| Repeat
 C-5~------------|

Eb--------------------|
Bb---77--5--7-8~~~~~~-|
 F-----7--------------|
 C-5~-----------------|

OUTRO
Eb---------------------|
Bb----7\-----7\------7-|
 F-----------------8---| Repeat many times
 C-5------5------5-----|

Eb------------------------------|
Bb---13--11------11--10---------|
 F-12------12--10------12----12-| Swich between the two
 C-------------------------12---|   when the changes occur.


This is my first tab. I was bored and figured i'd throw this up here.
Hope it dosn't suck too much. I didn't tab the fills in the verses because mine are 
the same and if you make your own it's more personal.
            
Submit corrections



        I Think I Lost My Headache lessons Hard to play? Try these video lessons and learn fast I Think I Lost My Headache lessons
        
↑ Back to top | Tablatures and chords for acoustic guitar and electric guitar, ukulele, drums are parodies/interpretations of the original songs. You may use it for private study, scholarship, research or language learning purposes only