» » »

Queens Of The Stone Age - If Only Bass

Artists:  A B C D E F G H I J K L M N O P Q R S T U V W X Y Z # 

If Only Bass

(ver. 1) Click to play this song!
Queens Of The Stone Age
 Rating:
4/5 (4 votes)


 If Only lessons Tabs too difficult? Try these video lessons and learn fast
 
                Drop Tune 2 Whole Steps to C (Eb,Bb,F,C)

Intro:
Eb|----------------------------|
Bb|-----9----------------------|
 F|---7---7-5--5-5-5-----3-5---|
 C|------------------3-5-------|


Riff 1:			  
Eb|-------------------------------------||
Bb|-------10------9---------------------||
 F|---8-8----8--7----5--5-5-5-----3-5---||
 C|---------------------------3-5-------||


Riff 2:		                
Eb|---------------------------------------|
Bb|-------10------9-----------3-0---------| 
 F|---8-8----8--7----5--5-5-5-----3-5-----|
 C|---------------------------------------|

Chorus Riff 1:
Eb|-------------------------||
Bb|-------------------------||
 F|-------3-5--5-2/8---8888-||
 C|---3-5-------------------||

Chorus Riff 2:(Not played until the second chorus)
Eb|-------------------------|
Bb|-------------------------|
 F|---------5--5-2/8---8888-|
 C|-------------------------|

Please rate this tab, it’s right!
            
Submit corrections



        If Only lessons Hard to play? Try these video lessons and learn fast If Only lessons
        
↑ Back to top | Tablatures and chords for acoustic guitar and electric guitar, ukulele, drums are parodies/interpretations of the original songs. You may use it for private study, scholarship, research or language learning purposes only