» » »

Queens Of The Stone Age - Auto Pilot Ukulele

Artists:  A B C D E F G H I J K L M N O P Q R S T U V W X Y Z # 

Auto Pilot Ukulele

(ver. 1) Click to play this song!
Queens Of The Stone Age
 Rating:
4.3/5 (10 votes)

 Auto Pilot lessons Tabs too difficult? Try these video lessons and learn fast
 
                [Intro]/[Verse]
A|1---1---3-------|1---1-1---1-1-1-|1---1---1---1---|1---1-1---1-1-1-|
E|2/3-3---3-------|2/3-3-1---1-1-1-|3---3---1h3-3---|1---1-1---1-1-1-|
C|0---0---0-------|0---0-0---0-0-0-|3---3---3---3---|2---2-0---0-0-0-|
G|----------------|----------------|----------------|----------------|

[Chorus]
  Cm               G#               F                F
A|3-3-3-3-3-------|--3---3-3-3-3---|0-0-0-------0---|0-0---0-0---0---|
E|3-3-3-3-3-------|--4---4-4-4-4---|1-1-1-------1---|1-1---1-1---1---|
C|3-3-3-3-3-------|--3---3-3-3-3---|0-0-0-------0---|0-0---0-0---0---|
G|0-0-0-0-0-------|--5---5-5-5-5---|2-2-2-------2---|2-2---2-2---2---|

            
Submit corrections


        Auto Pilot lessons Hard to play? Try these video lessons and learn fast Auto Pilot lessons
        
↑ Back to top | Tablatures and chords for acoustic guitar and electric guitar, ukulele, drums are parodies/interpretations of the original songs. You may use it for private study, scholarship, research or language learning purposes only