» » »

Queen - Bohemian Rhaphsody Tabs

Artists:  A B C D E F G H I J K L M N O P Q R S T U V W X Y Z # 

Bohemian Rhaphsody Tabs

(ver. 1) Click to play this song!
Queen
 Rating:
4/5 (4 votes)


 Bohemian Rhaphsody lessons Tabs too difficult? Try these video lessons and learn fast
 
                
He uses a lot of vibtaro so pretty much whenever there
is a rest start the vibrato.

-|-----------------8--8-10-11-8-10-11-13-----13-15-16-18-20---16-15h16p15-----
-|------------11---8----------------------13------------------------------18--
-|-10b12-10-8-----------------------------------------------------------------
-|----------------------------------------------------------------------------
-|----------------------------------------------------------------------------
-|----------------------------------------------------------------------------
                                                                              

-15----------------------------------------------------15h16h18---------------
----18-16-16h18p16-15-15h16p15----------------15h16h18------------------------
-------------------------------17-15----15h17-------------------15h17---------
                                                                              

----------15h16h18-20---------------------------------------------------------
-15h16h18----------------15h16----15h16----15h16-18-----------18--------------
-------------------------------17-------17--------------------------18-18-----
-----------------------------------------------------15-16-18----18-----------
                                                                              

------|-----------------------------------------------------------------------
------|-----------------------------------------------------------------------
------|-----------------------------------------------------------------------
------|-----------------------------------------------------------------------
-16\12|-----------------------------------------------------------------------
------|-----------------------------------------------------------------------
            
Submit corrections



        Bohemian Rhaphsody lessons Hard to play? Try these video lessons and learn fast Bohemian Rhaphsody lessons
        
↑ Back to top | Tablatures and chords for acoustic guitar and electric guitar, ukulele, drums are parodies/interpretations of the original songs. You may use it for private study, scholarship, research or language learning purposes only