Home » P » Pur »

Pur - Abenteuerland Bass

Artists:  A B C D E F G H I J K L M N O P Q R S T U V W X Y Z # 

Abenteuerland Bass

(ver. 1) Click to play this song!
Pur
Intro

G|-----------------|-----------------|-----------------|-----------------|
D|-----------------|-----------------|-----------------|-----------------|
A|-----------------|-----------------|-----------------|-----------------|
E|-----------------|-8-----8-------\-|-----------------|-----------------|
B|-10----10-10-----|-----------------|-5-----5-5-------|-3-----3---------|

G|-----------------|-----------------|-----------------|--------------------|
D|-----------------|-----------------|-----------------|--------------------|
A|-----------------|-----------------|-----------------|-----------8-7------|
E|-----------------|-8-----8-------\-|-----------------|---------------10---|
B|-10----10-10-----|-----------------|-5-----5-5-------|-6---6-6------------|

Vers 1

G|-----------------|-----------------|-----------------|-----------------|
D|-----------------|-----------------|-----------------|-----------------|
A|-----------------|-----------------|-----------------|-----------------|
E|-----------------|-8-----8-------\-|-----------------|-----------------|
B|-10----10-10-----|-----------------|-5-----5-5-------|-3-----3---------|

G|-----------------|-----------------|-----------------|-----------------|
D|-----------------|-----------------|-----------------|-----------------|
A|-----------------|-----------------|-----------------|-----------------|
E|-----------------|-8-----8-------\-|-----------------|-----------------|
B|-10----10-10-----|-----------------|-5-----5-5-------|-6-----6-----6h8-|

G|-----------------|-----------------|-----------------|-----------------|
D|-----------------|-----------------|-----------------|-----------------|
A|-----------------|-----------------|-----------------|-----------------|
E|-----------------|-8-----8-------\-|-----------------|-----------------|
B|-10----10-10-----|-----------------|-5-----5-5-------|-3-----3---------|

G|-----------------|-----------------|-----------------|-----------------|
D|-----------------|-----------------|-----------------|-----------------|
A|-----------------|-----------------|-----------------|-----------------|
E|-----------------|-8-----8-------\-|-----------------|-----------------|
B|-10----10-10-----|-----------------|-5-----5-5-------|-6-----6-------6-|

Pre-Chorus
G|-----------------|-----------------|-----------------|-----------------|
D|-----------------|-----------------|-----------------|-----------------|
A|-----------------|-----------------|-----------------|-----------------|
E|-3-----3-3-------|-3-----3---------|-----------------|-----------------|
B|-----------------|-----------------|-3-----3-3-------|-3-----3---------|

G|-----------------|-----------------|-----------------|---------0-2h4-2p0--|
D|-----------------|-----------------|-----------------|-----5-4------------|
A|-----------------|-----------------|-----------------|--------------------|
E|-----------------|-----------------|-3---3-3-3-------|-3------------------|
B|-1-----1-1-------|-1-----1---------|-----------------|--------------------|

G|-----------------|-----------------|-----------------|-----------------|
D|-----------------|-----------------|-----------------|-----------------|
A|-----------------|-----------------|-----------------|-----------------|
E|-3---3-----------|-3---3-----------|-----------------|-----------------|
B|-----------------|---------6---5---|-3---------------|-3-----3-----6h8-|

G|-----------------|-----------------|-----------------|-----------------|
D|-----------------|-----------------|-----------------|-----------------|
A|-----------------|-----------------|-----------------|-----------------|
E|-8---8-----------|-6---6---6---6---|-4---4---4---4---|-6---------------|
B|-----------------|-----------------|-----------------|-----------------|

Chorus

G|-----------------|-----------------|-----------------|-----------------|
D|-----------------|-----------------|-----------------|-----------------|
A|-----------------|-----------------|-----------------|-----------------|
E|-11--11--11--11\-|-8---8---8---8---|-3---3---3---3---|-4---4---6---6---|x3
B|-----------------|-----------------|-----------------|-----------------|

G|-----------------|-----------------|-----------------|-----------------|
D|-----------------|-----------------|-----------------|-----------------|
A|-----------------|-----------------|-----------------|-----------------|
E|-8---8---8---8---|-6---6---6---6---|-5---5---5---5---|-----------------|
B|-----------------|-----------------|-----------------|-6---6---6---8---|

G|-----------------|-----------------|
D|-----------------|-----------------|  
A|-----------------|-----------------|
E|-----------------|-----------------|
B|-9---------------|-(9)--------/16\-|

Gitarren Riff

G|-----------------|-----------------|-----------------|--------------------|
D|-----------------|-----------------|-----------------|--------------------|
A|-----------------|-----------------|-----------------|-----------8-7------|
E|-----------------|-8-----8-------\-|-----------------|---------------10-8-|
B|-10----10-10-----|-----------------|-5-----5-5-------|-6---6-6------------|

Vers 2

G|-----------------|-----------------|-----------------|-----------------|
D|-----------------|-----------------|-----------------|-----------------|
A|-----------------|-----------------|-----------------|-----------------|
E|-----------------|-8-----8-------\-|-----------------|-----------------|
B|-10----10-10-----|-----------------|-5-----5-5-------|-3-----3---------|

G|-----------------|-----------------|-----------------|-----------------|
D|-----------------|-----------------|-----------------|-----------------|
A|-----------------|-----------------|-----------------|-----------------|
E|-----------------|-8-----8-------\-|-----------------|-----------------|
B|-10----10-10-----|-----------------|-5-----5-5-------|-6-----6-------6-|

Pre Chorus

G|-----------------|-----------------|-----------------|-----------------|
D|-----------------|-----------------|-----------------|-----------------|
A|-----------------|-----------------|-----------------|-----------------|
E|-3-----3-3-------|-3-----3---------|-----------------|-----------------|
B|-----------------|-----------------|-3-----3-3-------|-3-----3---------|

G|-----------------|-----------------|-----------------|---------0-2h4-2p0--|
D|-----------------|-----------------|-----------------|-----5-4------------|
A|-----------------|-----------------|-----------------|--------------------|
E|-----------------|-----------------|-3---3-3-3-------|-3------------------|
B|-1-----1-1-------|-1-----1---------|-----------------|--------------------|

G|-----------------|-----------------|-----------------|-----------------|
D|-----------------|-----------------|-----------------|-----------------|
A|-----------------|-----------------|-----------------|-----------------|
E|-3---3-----------|-3---3-----------|-----------------|-----------------|
B|-----------------|---------6---5---|-3---------------|-3-----3-----6h8-|

G|-----------------|-----------------|-----------------|-----------------|
D|-----------------|-----------------|-----------------|-----------------|
A|-----------------|-----------------|-----------------|-----------------|
E|-8---8---8---8---|-6---6---6---6---|-4---4---4---4---|-6---6---6---6---|
B|-----------------|-----------------|-----------------|-----------------|

Chorus 2

G|-------------------|-----------------|-----------------|-----------------|
D|-------------------|-----------------|-----------------|-----------------|
A|-------------------|-----------------|-----------------|-----------------|
E|-11--11--11--11p10-|-8---8---8---8---|-3---3---3---3---|-4---4---6---6---|
B|-------------------|-----------8-----|-----------------|-----------------|

G|-----------------|-----------------|-----------------|-----------------|
D|-----------------|-----------------|-----------------|-----------------|
A|-----------------|-----------------|-----------------|-----------------|
E|-----------------|-8---8---8---8---|-3---3---3---3---|-4---4---6---6---|
B|-4---4---4---4---|-----------------|-----------------|---4-------------|

G|-----------------|-----------------|-----------------|-----------------|
D|-----------------|-----------------|-----------------|-----------------|
A|-----------------|-----------------|-----------------|-----------------|
E|-----------------|-8---8---8---8---|-3---3---3---3---|-4---4---6---6---|
B|-4---4---4---4---|-----------8-----|-----------------|-----------------|

G|-----------------|-----------------|-----------------|-----------------|
D|-----------------|-----------------|-----------------|-----------------|
A|-----------------|-----------------|-----------------|-----------------|
E|-8---8---8---8---|-6---6---6---6---|-5---5---5---5---|-----------------|
B|-----------8-----|-----------------|-----------------|-6---6---6---8---|

G|-----------------|-----------------|
D|-----------------|-----------------|  
A|-----------------|-----------------|
E|-----------------|-----------------|
B|-9-------------/-|-(21)----------\-|

Bridge

G|-----------------|-----------------|-----------------|-----------------|
D|-----------------|-----------------|-----------------|-----------------|
A|-----------------|-----------------|-----------------|-----------------|
E|-----------------|-----------------|-----------------|-----------------|
B|-7---7-----------|-7---7-----------|-7---7-----------|-7---7-----------|

G|-----------------|-----------------|-----------------|-----------------|
D|-----------------|-----------------|-----------------|-----------------|
A|-----------------|-4---4-----------|-----------------|-----------------|
E|-----------------|-----------------|-----------------|-----------------|
B|-2---2-----------|-----------------|-2---2-------(2)-|-2---2-/-11--9---|

G|-----------------|-----------------|-----------------|-----------------|
D|-----------------|-----------------|-----------------|-----------------|
A|-----------------|-----------------|-----------------|-----------------|
E|-----------------|-----------------|-----------------|-----------------|
B|-7---7-----------|-7---7---7-------|-7---7---7-------|-7---7---7-------|

G|-----------------|-----------------|-----------------|-----------------|
D|-----------------|-----------------|-----------------|-----------------|
A|-----4---4---4---|-----4---4-------|-----4---4---4---|--4------4-------|
E|-----------------|-----------------|-----------------|-----------6-4---|
B|-2---------------|-2---------------|-2---------------|---------------6-|

G|-----------------|-----------------|-----------------|-----------------|
D|-----------------|-----------------|-----------------|-----------------|
A|-----------------|-----------------|-----------------|-----------------|
E|-----------------|-----------------|-----------------|-9---9---9---9---|
B|-7---7---7---7---|-9---9---9---9---|-11--11--11--11--|-----------------|

G|-----------------|-----------------|-----------------|------------------|
D|-----------------|-----------------|-----------------|------------------|
A|-----------------|-----------------|-----11----------|------------------|
E|-11--11--11--11--|-12--12--12--12--|-13------12--13\-|-9-9-9-9-9-11-----|
B|-----------------|-----------------|-----------------|--------------9\6-|

G|-----------------|-----------------|-----------------|-----------------|
D|-----------------|-----------------|-----------------|-----------------|
A|-----------------|-----------------|-----------------|-----------------|
E|-----------------|-----------------|-----------------|-----------------|
B|-7---7---7---7---|-7---7---7---7---|-6---6---6---6---|-9---9---9---9---|

G|-----------------|-----------------|-----------------|-----------------|
D|-----------------|-------------8---|-8---8---8---8---|-8---8---8---8\--|
A|-----------------|---------------8-|-----------8-----|-----------------|
E|-6---6---6---6---|-6---6---6-------|-----------------|-----------------|
B|-----------------|-----------------|-----------------|-----------------|

Zwischenspiel

G|-----------------|-----------------|-----------------|-----------------|
D|-----------------|-----------------|-----------------|-----------------|
A|-6---------------|-(6)---------6\--|-----------------|-----------------|
E|-----------------|-----------------|-----------------|-----------------|
B|-----------------|-----------------|-4---------------|-(4)-------------|

G|-----------------|-----------------|-----------------|-----------------|
D|-----------------|-----------------|-----------------|-----------------|
A|-----------------|-----------------|-----------------|-------------6---|
E|--3 Takte Pause--|-----------------|-----------------|-4-----6-------6/|
B|-----------------|-----------------|-----------------|-----------------|

Chorus

G|-------------------|-----------------|-----------------|-----------------|
D|-------------------|-----------------|-----------------|-----------------|
A|-------------------|-----------------|-----------------|-------------6---|
E|-11--11--11--11p10\|-8---8---8---8---|-3---3---3---3---|-4---4---6-----6/|
B|-----------11------|-----------------|-----------------|-----------------|

G|--------------------|-----------------|-----------------|-----------------|
D|--------------------|-----------------|-----------------|-----------------|
A|---------8h10-8-----|-----------------|-----------------|-----------------|
E|-11--11---------11\-|-8---8---8---8---|-3---3---3---3---|-4---4---6---6---|
B|--------------------|-----------------|-----------------|-----------------|

G|-----------------|-----------------|-----------------|-----------------|
D|-----------------|-----------------|-----------------|-----------------|
A|-----------------|-----------------|-----------------|-----------------|
E|-----------------|-8---8---8---8---|-3---3---3---3---|-4---4---6---6---|
B|-4---4---4---4---|-----------------|-----------------|-----------------|

G|-----------------|-----------------|-----------------|-----------------|
D|-----------------|-----------------|-----------------|-----------------|
A|-----------------|-----------------|-----------------|-----------------|
E|-8---8---8---8---|-6---6---6---6---|-5---5---5---5---|-4---4---6---6---|
B|-----------------|---------------6-|-----------------|-----------------|

G|-----------------|-----------------|-----------------|-----------------|
D|-----------------|-----------------|-----------------|-----------------|
A|-----------------|-----------------|-----------------|-------------6---|
E|-----------------|-8---8---8---8---|-3---3---3---3---|-4---4---6-----6-|
B|-4---4---4---4---|-----------------|-----------------|-----------------|

Ab hier start der Fade-Out mit:
G|-------------------|-----------------|-----------------|-----------------|
D|-------------------|-----------------|-----------------|-----------------|
A|-------------------|-----------------|-----------------|-------------6---|x2
E|-11--11--11--11p10-|-8---8---8---8---|-3---3---3---3---|-4---4---6-----6-|
B|-------------------|-----------------|-----------------|-----------------|
            
Submit corrections

↑ Back to top | Tablatures and chords for acoustic guitar and electric guitar, ukulele, drums are parodies/interpretations of the original songs. You may use it for private study, scholarship, research or language learning purposes only