» » »

Blurry Eadg Bass - Puddle Of Mudd

Artists:  A B C D E F G H I J K L M N O P Q R S T U V W X Y Z # 

Blurry Eadg Bass

(ver. 1) Click to play this song!
Puddle Of Mudd
4/5 (4 votes)
    Blurry Eadg lessons Tabs too difficult? Try these video lessons and learn fast
                Puddle of Mudd
Standard Tuning

G -----------------------------------------------------
D -5---------------------------------------------------
A 3-3--333-330-5-55-5-55-55------7---7---5----7---7-575
E -----------------5-------5--0-0--00--57--0-0--00-----

G ------
D ------
A 3*--5*
E ------
G ---------------
D ---------------
A ----7-7---7-777
E 0-00---0-0-----

Submit corrections

↑ Back to top | Tablatures and chords for acoustic guitar and electric guitar, ukulele, drums are parodies/interpretations of the original songs. You may use it for private study, scholarship, research or language learning purposes only