Home » P » Psychedelic Furs »

Psychedelic Furs - Sometimes Tabs

Artists:  A B C D E F G H I J K L M N O P Q R S T U V W X Y Z # 

Sometimes Tabs

(ver. 1) Click to play this song!
Psychedelic Furs
Intro

         E                              D
e|--------0-----------------------------2---------------0--------------------|
B|--------0-----------------------------3---------------2--------------------|
G|--------1-----------------------------2---------------2--------------------|
D|--------2-----------------------------0---------------2--------------------|
A|--------2---------------------------------------------0--------------------|
E|--------0------------------------------------------------------------------|


Bridge (Repeats in between verses)- Strum chords.

          E            E Var.           D Sus        D13
e|--------0--------------4---------------0------------2----------------------|
B|--------0--------------4---------------3------------2----------------------|
G|--------1--------------4---------------2------------2----------------------|
D|--------2--------------2---------------0------------0----------------------|
A|--------2--------------2---------------------------------------------------|
E|--------0--------------0---------------------------------------------------|

Verses (Can be played in multiple positions. I like bar chords, but sounds good with 
root chords as well)


            A            E          D          C#m
e|----------5------------7----------7------------4---------------------------|
B|----------5------------9----------7------------5---------------------------|
G|----------6------------9----------7------------6---------------------------|
D|----------7------------9----------7------------6---------------------------|
A|----------7------------7----------5------------4---------------------------|
E|----------5----------------------------------------------------------------|            
Submit corrections

↑ Back to top | Tablatures and chords for acoustic guitar and electric guitar, ukulele, drums are parodies/interpretations of the original songs. You may use it for private study, scholarship, research or language learning purposes only