Home » P » Propagandhi »

Propagandhi - The Only Good Fascist Is A Dead Fascist Tabs

Artists:  A B C D E F G H I J K L M N O P Q R S T U V W X Y Z # 

The Only Good Fascist Is A Dead Fascist Tabs
Version #1
Propagandhi


Copy URL
Short but sweet.


.p.m. - Palm Mute
X - Scratch

Intro x8
e|-------------|-----|
B|-------------|-----|Play dead notes for background noises
G|-5--6--7--8--|-xx--|
D|-5--6--7--8--|-xx--|
A|-3--4--5--6--|-xx--|
E|-------------|-----|

Chorus x4              	          x1  
e|-------------------------------|-------------------------|
B|-------------------------------|-------------------------|
G|------------------7-7----6-6---|-7-7----6-6-----7---6----|
D|---5---5---5---5--7-7-6--6-6-5-|-7-7-6--6-6-5---7-6-6-5--|
A|-4---4---5---5----5-5-6--4-4-5-|-5-5-6--4-4-5---5-6-4-5--|
E|----------------------4------3-|-----4------3-----4---3--|
   ......p.m.......

Verse x3  	                         x1 
e|------------------------------------|-------------------------------------|
B|------------------------------------|-------------------------------------|
G|------------------------------------|-------------------------------------|
D|--------------------0---0---4-5-4-5-|--------------------0---0---4-5-4-5--|
A|-5-0-5-0-5-0-5-0--4---4-------------|-5-0-5-0-5-0-5-0--4---4--------------|
E|------------------------------------|-------------------------------------|
   ...............p.m.................

Chorus x4              	          x1  
e|-------------------------------|-------------------------|
B|-------------------------------|-------------------------|
G|------------------7-7----6-6---|-7-7----6-6-----7---6----|
D|---5---5---5---5--7-7-6--6-6-5-|-7-7-6--6-6-5---7-6-6-5--|
A|-4---4---5---5----5-5-6--4-4-5-|-5-5-6--4-4-5---5-6-4-5--|
E|----------------------4------3-|-----4------3-----4---3--|
   ......p.m.......
            
Submit corrections

↑ Back to top | Tablatures and chords for acoustic guitar and electric guitar, ukulele, drums are parodies/interpretations of the original songs. You may use it for private study, scholarship, research or language learning purposes only