Home » P » Propagandhi »

Propagandhi - Bringer Of Greater Things Tabs

Artists:  A B C D E F G H I J K L M N O P Q R S T U V W X Y Z # 

Bringer Of Greater Things Tabs
Version #1
Propagandhi


Copy URL
[Intro]
D#|-----------------------------|
A#|-----------------------------|
F#|-----------------------------|
C#|-----------------------------|
G#|-----------------------------|
D#|--8--3--5--1---8--3--5--1----|

[Verse]
D#|---------------------------------------------------|
A#|---------------------------------------------------|
F#|------------10---10p9p7h9~-------------------------|
C#|--7-7--5-5--10--------------7-7--5-5--3--3-3-3-3---|
G#|--7-7--5-5---8--------------7-7--5-5--3--3-3-3-3---|
D#|--5-5--3-3------------------5-5--3-3--1--1-1-1-1---|

D#|---------------------------------------------------|
A#|---------------------------------------------------|
F#|------------10---10p9p7h9~-------------------------|
C#|--7-7--5-5--10--------------7-7--5-5--3--3-3-3-3---|
G#|--7-7--5-5---8--------------7-7--5-5--3--3-3-3-3---|
D#|--5-5--3-3------------------5-5--3-3--1--1-1-1-1---|

[Pre chorus]
D#|---------------------------------------------------------------------------|
A#|--1-1-1-1--1-1-1-1--1-1-1-1--1-1-1-1--1-1-1-1--1-1-1-1--1-1-1-1--1-1-1-1---|
F#|--2-2-2-2--2-2-2-2--2-2-2-2--2-2-2-2--2-2-2-2--2-2-2-2--2-2-2-2--2-2-2-2---|
C#|--2-2-2-2--2-2-2-2--2-2-2-2--2-2-2-2--2-2-2-2--2-2-2-2--2-2-2-2--2-2-2-2---|
G#|--0-0-0-0--3-3-3-3--0-0-0-0--3-3-3-3--0-0-0-0--3-3-3-3--0-0-0-0--3-3-3-3---|
D#|---------------------------------------------------------------------------|

[Chorus]
D#|---------------------------------------------------------------------------|
A#|---------------------------------------------------------------------------|
F#|-------------7-7-7-7--5-5-5-5-------------7-7-7-7--5-5-5-5---9--9--9-10----|
C#|--7-7-7-7-7--7-7-7-7--5-5-5-5--5-5-5-5-5--7-7-7-7--5-5-5-5--10-10-10-10----|
G#|--7-7-7-7-8--5-5-5-5--3-3-3-3--5-5-5-5-5--5-5-5-5--3-3-3-3---7--7--7--8----|
D#|--5-5-5-5-5--------------------3-3-3-3-3-----------------------------------|

D#|--------------------------------------------------|
A#|--------------------------------------------------|
F#|--7-7-7-7--5-5-5-5----------------------5-5-5-5---|
C#|--7-7-7-7--5-5-5-5--7-7-7-7-7--7-7-7-7--5-5-5-5---|
G#|--5-5-5-5--3-3-3-3--7-7-7-7-8--8-8-8-8--3-3-3-3---|
D#|--------------------5-5-5-5-5--5-5-5-5------------|

[Verse]
D#|------------------------------------------------|
A#|------------------------------------------------|
F#|------------------------------------------------|
C#|--7-7--5-5--3--3-3-3-3---7-7--5-5--3--3-3-3-3---|
G#|--7-7--5-5--3--3-3-3-3---7-7--5-5--3--3-3-3-3---|
D#|--5-5--3-3--1--1-1-1-1---5-5--3-3--1--1-1-1-1---|

D#|---------------------------------------------------|
A#|---------------------------------------------------|
F#|------------10---10p9p7h9~-------------------------|
C#|--7-7--5-5--10--------------7-7--5-5--3--3-3-3-3---|
G#|--7-7--5-5---8--------------7-7--5-5--3--3-3-3-3---|
D#|--5-5--3-3------------------5-5--3-3--1--1-1-1-1---|

[Pre chorus]
D#|---------------------------------------------------------------------------|
A#|--1-1-1-1--1-1-1-1--1-1-1-1--1-1-1-1--1-1-1-1--1-1-1-1--1-1-1-1--1-1-1-1---|
F#|--2-2-2-2--2-2-2-2--2-2-2-2--2-2-2-2--2-2-2-2--2-2-2-2--2-2-2-2--2-2-2-2---|
C#|--2-2-2-2--2-2-2-2--2-2-2-2--2-2-2-2--2-2-2-2--2-2-2-2--2-2-2-2--2-2-2-2---|
G#|--0-0-0-0--3-3-3-3--0-0-0-0--3-3-3-3--0-0-0-0--3-3-3-3--0-0-0-0--3-3-3-3---|
D#|---------------------------------------------------------------------------|

[Bridge]
D#|---------------------------|
A#|---------------------------|
F#|---------------------------|
C#|---7--5--3-3---7--5--3-3---|
G#|---7--5--3-3---7--5--3-3---|
D#|---5--3--1-1---5--3--1-1---|

D#|------------------------------------------------|
A#|------------------------------------------------|
F#|--------------10---9--7-------------10---9--7---|
C#|---7-7-7-7-7---9--10--7--7-7-7-7-7---9--10--7---|
G#|---7-7-7-7-8--10---7--5--7-7-7-7-8--10---7--5---|
D#|---5-5-5-5-5-------------5-5-5-5-5--------------|

[Verse]
D#|--------------------------------------------------------------------------------------------------|
A#|------------15-15-15-15-13-13-13-13--10-10-10-10-----------15-15-15-15-13-13-13-13--10-10-10-10---|
F#|------------12-12-12-12-12-12-12-12--10-10-10-10-----------12-12-12-12-12-12-12-12--10-10-10-10---|
C#|---7-7-7-7--12-12-12-12-12-12-12-12--10-10-10-10--7-7-7-7--12-12-12-12-12-12-12-12--10-10-10-10---|
G#|---7-7-7-7--10-10-10-10-10-10-10-10---8--8--8--8--7-7-7-7--10-10-10-10-10-10-10-10---8--8--8--8---|
D#|---5-5-5-5----------------------------------------5-5-5-5-----------------------------------------|

D#|--------------------------------------------------------------------------------------------------|
A#|------------15-15-15-15-13-13-13-13--10-10-10-10-----------15-15-15-15-13-13-13-13--10-10-10-10---|
F#|------------12-12-12-12-12-12-12-12--10-10-10-10-----------12-12-12-12-12-12-12-12--10-10-10-10---|
C#|---7-7-7-7--12-12-12-12-12-12-12-12--10-10-10-10--7-7-7-7--12-12-12-12-12-12-12-12--10-10-10-10---|
G#|---7-7-7-7--10-10-10-10-10-10-10-10---8--8--8--8--7-7-7-7--10-10-10-10-10-10-10-10---8--8--8--8---|
D#|---5-5-5-5----------------------------------------5-5-5-5-----------------------------------------|

[Chorus]
D#|----------------------------3-------------------------------------------------------|
A#|----------------------------3-------------------------------------------------------|
F#|---------------7-7-7-7-5----4----7-7-7-7-5----9--9--9-10--7----5----------------5---|
C#|--7-7-7-7-7----7-7-7-7-5----5----7-7-7-7-5---10-10-10-10--7----5---7-7-7-7-7----5---|
G#|--7-7-7-7-8----5-5-5-5-3----5----5-5-5-5-3----7--7--7--8--5----3---7-7-7-7-8----3---|
D#|--5-5-5-5-5-----------------3--------------------------------------5-5-5-5-5--------|

D#|------------------------------------------------------------------------------------|
A#|--1-1-1-1--1-1-1-1--1-1-1-1--1-1-1-1--1-1-1-1--1-1-1-1--1-1-1-1--1-1-1-1------------|
F#|--2-2-2-2--2-2-2-2--2-2-2-2--2-2-2-2--2-2-2-2--2-2-2-2--2-2-2-2--2-2-2-2------------|
C#|--2-2-2-2--2-2-2-2--2-2-2-2--2-2-2-2--2-2-2-2--2-2-2-2--2-2-2-2--2-2-2-2--3-3-3-3---|
G#|--0-0-0-0--3-3-3-3--0-0-0-0--3-3-3-3--0-0-0-0--3-3-3-3--0-0-0-0--3-3-3-3--3-3-3-3---|
D#|--------------------------------------------------------------------------1-1-1-1---|

[Outro]
D#|-------------------------------------------------------------------|
A#|-------------------------------------------------------------------|
F#|----------12-12-12--10-10-10---------12-12-12--10-10-10--5-5-7-7---|
C#|---7-7-7--12-12-12--10-10-10--7-7-7--12-12-12--10-10-10--5-5-7-7---|
G#|---7-7-7--10-10-10---8--8--8--7-7-7--10-10-10---8--8--8--3-3-5-5---|
D#|---5-5-5----------------------5-5-5--------------------------------|

D#|-------------------------------------------------------------------|
A#|-------------------------------------------------------------------|
F#|----------12-12-12--10-10-10---------12-12-12--10-10-10--5-5-7-7---|
C#|---7-7-7--12-12-12--10-10-10--7-7-7--12-12-12--10-10-10--5-5-7-7---|
G#|---7-7-7--10-10-10---8--8--8--7-7-7--10-10-10---8--8--8--3-3-5-5---|
D#|---5-5-5----------------------5-5-5--------------------------------|

D#|-------------------------------------------------------------------|
A#|-------------------------------------------------------------------|
F#|----------12-12-12--10-10-10---------12-12-12--10-10-10--5-5-7-7---|
C#|---7-7-7--12-12-12--10-10-10--7-7-7--12-12-12--10-10-10--5-5-7-7---|
G#|---7-7-7--10-10-10---8--8--8--7-7-7--10-10-10---8--8--8--3-3-5-5---|
D#|---5-5-5----------------------5-5-5--------------------------------|

D#|-----------------------------------------------------------------------|
A#|-----------------------------------------------------------------------|
F#|----------12-12-12--10-10-10---------12-12-12--10-10-10--5-5-7-7-------|
C#|---7-7-7--12-12-12--10-10-10--7-7-7--12-12-12--10-10-10--5-5-7-7--7\---|
G#|---7-7-7--10-10-10---8--8--8--7-7-7--10-10-10---8--8--8--3-3-5-5--7\---|
D#|---5-5-5----------------------5-5-5-------------------------------5\---|            
Submit corrections

↑ Back to top | Tablatures and chords for acoustic guitar and electric guitar, ukulele, drums are parodies/interpretations of the original songs. You may use it for private study, scholarship, research or language learning purposes only