Home » P » Propagandhi »

Propagandhi - Apparently I'm A 'pc Fascist' Tabs

Artists:  A B C D E F G H I J K L M N O P Q R S T U V W X Y Z # 

Apparently I'm A 'pc Fascist' Tabs
Version #1
Propagandhi


Copy URL
               Apparently I’m A P.C. Fascist - Propagandhi


\ = Slide up

Tuning: Standard (E A D G B E)

Intro:
|--3-----15--------|
|--3--------15-----|
|--0-----------12--|
|--0---------------|
|--2\--------------|
|--3\--------------|

Verse:
|                 4x|                                                           |                 2x|
|--3-3-1-1-3-3-1-1--|--3-3-3-3-5-5-5-5--|--3-3-1-1-3-3-1-1--|--3-3-3-3-5-5-5-5--|--3-3-1-1-3-3-1-1--|
|--3-3-1-1-3-3-1-1--|--3-3-3-3-5-5-5-5--|--3-3-1-1-3-3-1-1--|--3-3-3-3-5-5-5-5--|--3-3-1-1-3-3-1-1--|
|--4-4-2-2-5-5-2-2--|--5-5-5-5-7-7-7-7--|--4-4-2-2-5-5-2-2--|--5-5-5-5-7-7-7-7--|--4-4-2-2-5-5-2-2--|
|--5-5-3-3-5-5-3-3--|--5-5-5-5-7-7-7-7--|--5-5-3-3-5-5-3-3--|--5-5-5-5-7-7-7-7--|--5-5-3-3-5-5-3-3--|
|--5-5-3-3-3-3-3-3--|--3-3-3-3-5-5-5-5--|--5-5-3-3-3-3-3-3--|--3-3-3-3-5-5-5-5--|--5-5-3-3-3-3-3-3--|
|--3-3-1-1-----1-1--|-------------------|--3-3-1-1-----1-1--|-------------------|--3-3-1-1-----1-1--|

Chorus:
|                    2x|
|--5-5-5-5-----1----3--|---------------|
|--5-5-5-5-----1----3--|---------------|
|--7-7-7-7-----2----0--|---------------|
|--7-7-7-7-----3----0--|---------------|
|--5-5-5-5-0---3----2--|---------------|
|----------0-0-1-------|--(pickslide)--|

Verse:
|                 4x|                                                           |                 2x|
|--3-3-1-1-3-3-1-1--|--3-3-3-3-5-5-5-5--|--3-3-1-1-3-3-1-1--|--3-3-3-3-5-5-5-5--|--3-3-1-1-3-3-1-1--|
|--3-3-1-1-3-3-1-1--|--3-3-3-3-5-5-5-5--|--3-3-1-1-3-3-1-1--|--3-3-3-3-5-5-5-5--|--3-3-1-1-3-3-1-1--|
|--4-4-2-2-5-5-2-2--|--5-5-5-5-7-7-7-7--|--4-4-2-2-5-5-2-2--|--5-5-5-5-7-7-7-7--|--4-4-2-2-5-5-2-2--|
|--5-5-3-3-5-5-3-3--|--5-5-5-5-7-7-7-7--|--5-5-3-3-5-5-3-3--|--5-5-5-5-7-7-7-7--|--5-5-3-3-5-5-3-3--|
|--5-5-3-3-3-3-3-3--|--3-3-3-3-5-5-5-5--|--5-5-3-3-3-3-3-3--|--3-3-3-3-5-5-5-5--|--5-5-3-3-3-3-3-3--|
|--3-3-1-1-----1-1--|-------------------|--3-3-1-1-----1-1--|-------------------|--3-3-1-1-----1-1--|

Chorus:
|                    2x|
|--5-5-5-5-----1----3--|
|--5-5-5-5-----1----3--|
|--7-7-7-7-----2----0--|
|--7-7-7-7-----3----0--|
|--5-5-5-5-0---3----2--|
|----------0-0-1-------|

Outro:
|--1-1----1----3--|--1-1----1----3----5----1--|
|--3-3----1----3--|--3-3----1----3----5----3--|
|--3-3----2----0--|--3-3----2----5----7----3--|
|--1-1----3----0--|--1-1----3----5----7----1--|
|--1-1----3----2--|--1-1----3----3----5----1--|
|---------1-------|---------1-----------------|
            
Submit corrections

↑ Back to top | Tablatures and chords for acoustic guitar and electric guitar, ukulele, drums are parodies/interpretations of the original songs. You may use it for private study, scholarship, research or language learning purposes only