Home » P » Promise Ring »

Promise Ring - Watertown Plank Tabs

Artists:  A B C D E F G H I J K L M N O P Q R S T U V W X Y Z # 

Watertown Plank Tabs

(ver. 1) Click to play this song!
Promise Ring
 Rating:
4/5 (4 votes)
                Tuning: Standard

Intro: The G chord below.

Verse "There will be ice cream for naked boys swimming in kettles"  

Guitar 1

e----------------------------------------------------------------|
B----------------------------------------------------------------|
G----------------------------------------------------------------|
D---5----2-------------------------------------------------------|
A---5----2-------------------------------------------------------|
E---3----0-------------------------------------------------------|

Guitar 2

e----------------------------------------------------------------|
B----------------------------------------------------------------|
G----------------------------------------------------------------|
D----5-4----5-4--------------------------------------------------|
A----------------------------------------------------------------|
E----------------------------------------------------------------|

"Tornado country..."

e----0-----------------------------------------------------------|
B----0-----------------------------------------------------------|
G----0-----------------------------------------------------------|
D----0-----------------------------------------------------------|
A----10----------------------------------------------------------|
E----8-----------------------------------------------------------|


Pre-chorus "summer...wanna live in your house..."

e----------------------------------------------------------------|
B--------------0-------------------------------------------------|
G---12----14---0-------------------------------------------------|
D--------------5-------------------------------------------------|
A---10----12---5-------------------------------------------------|
E--------------3-------------------------------------------------|

Chorus - "Like fire you never really know whats there"

e----------------------------------------------------------------|
B----------------------------------------------------------------|
G---10---12------------------------------------------------------|
D----------------------------------------------------------------|
A---8----10------------------------------------------------------|
E----------------------------------------------------------------|

Pretty basic song, I'm sure you can work out the rhythm for yourself.
            
Submit corrections

↑ Back to top | Tablatures and chords for acoustic guitar and electric guitar, ukulele, drums are parodies/interpretations of the original songs. You may use it for private study, scholarship, research or language learning purposes only