» » »

Promise Ring - The Deep South Tabs

Artists:  A B C D E F G H I J K L M N O P Q R S T U V W X Y Z # 

The Deep South Tabs

(ver. 1) Click to play this song!
Promise Ring
 Rating:
4/5 (4 votes)

 The Deep South lessons Tabs too difficult? Try these video lessons and learn fast
 
                Tuning: Standard


Lead

e-----------------------------------------------------------------|
B-----------------------------------------------------------------|
G-----------------------------------------------------------------|
D--------9-9-9--11-9-7-9-7-9-11-9----------9-9-9--11-9-7-7--------|
A--7h9p7---------------------------7h9p7--------------------------|
E-----------------------------------------------------------------|


Verse

"In the deep south of heaven..."

e--------|----|-----------------------------|
B--------|----|-----------------------------|
G--------|----|-----------------------------|
D----9---|--2-|-----9-----------------------|
A----7---|--0-|-----7-----------------------|
E--------|----|-----5-----------------------|
                  (when the drums kick in I start using this Aadd9)




"I know that bridges and houses..."

e------|-----|---|
B------|-----|---|
G------|-----|-9-|
D---9--|--7--|-9-|
A---9--|--7--|-7-|
E---7--|--5--|---|

Then play intro again.
Then play another verse.
Then Play...

Chorus chords

"so I think, I think thats exciting......"

e----|---|---|
B----|---|---|
G----|---|---|
D--9-|-9-|-7-|
A--9-|-7-|-7-|
E--7-|-9-|-5-|

then play intro
verse
chorus

little lead bit played over E chord.

e-----4-----4------5-4---------------------|
B-------5-----5--------5-------------------|
G---------4-----4--------4s6-4-------------|
D------------------------------------------|
A------------------------------------------|
E------------------------------------------|

then chorus to finish.
            
Submit corrections


        The Deep South lessons Hard to play? Try these video lessons and learn fast The Deep South lessons
        
↑ Back to top | Tablatures and chords for acoustic guitar and electric guitar, ukulele, drums are parodies/interpretations of the original songs. You may use it for private study, scholarship, research or language learning purposes only