» » »

Promise Ring - Strictly Television Tabs

Artists:  A B C D E F G H I J K L M N O P Q R S T U V W X Y Z # 

Strictly Television Tabs

(ver. 1) Click to play this song!
Promise Ring
 Rating:
4/5 (4 votes)

 Strictly Television lessons Tabs too difficult? Try these video lessons and learn fast
 
                Tuning: Standard


Intro                           (x2)

e--------------------------|------------------------|
B--------------------------|-9-9-9-9-9-9-9-9-9------|
G--------------------------|-9-9-9-9-9-9-9-9-9------|
D--9--9--x--x---9--9--x-x--|-9-9-9-9-9-9-9-9-9------|
A--7--7--x--x---9--9--x-x--|-7-7-7-7-7-7-7-7-7------|
E--5--5--x--x---7--7--x-x--|------------------------|



Verse Chords

e-----|------|
B--9--|------|
G--9--|------|
D--9--|--9---|
A--7--|--7---|
E-----|--5---|


Verse

E                                   E/A
My greatest favourite willy and max magee 

E                                   E/A
My greatest favourite willy and max magee 

E
its everyone I could not be
 

(play intro)


Verse 2

E                                   E/A
The greatest favourites willy and max magee 

E                                        E/A
A brewer killer, a touchdown against the chiefs

E
its not my memory


(play intro)


Pre-chorus chords

e----------------------------------------------------------------------|
B----------------------------------------------------------------------|
G-------------------------------9-9-9-9-9------------------------------|
D----------6-6------------------9-9-9-9-9--etc-------------------------|
A--7-7-x-x-4-4-7-7-x-x-9-9-x-x--7-7-7-7-7------------------------------|
E--5-5-x-x-----5-5-x-x-7-7-x-x-----------------------------------------|


             A  
its everyone one else

C#
I could not

A
I could not

B                       E
and I could not seem to be



chorus chords (heres how i'd pluck it! generally i just strum the shape.)


e-----------------------------------------------------------------------|
B------3-----------3--------------3---------------2---------------------|
G----2--2---2----2---2---2------2---2---2-------2---2-------------------|
D---0-----0------------0--------------0---------------2-----------------|
A--------------4------------2-----------------0-------------------------|
E-----------------------------------------------------------------------|

or maybe you'd prefer to rawk it out in barre style with these chords
like so:

e--------------|
B--------------|
G--------------|
D--7--7--4--2--|
A--5--4--2--0--|
E--------------|

D
so isn't it absurd
  
  D/C#        B    
beginning the world

      A           D
and beginning the world

   D/C#       B   
on strictly television

           A                     D
I name the losses and I lose the names I

D/C#    B           A        D   
talk in circles the world is round

D/C#                E 
the world is coming around
            
Submit corrections


        Strictly Television lessons Hard to play? Try these video lessons and learn fast Strictly Television lessons
        
↑ Back to top | Tablatures and chords for acoustic guitar and electric guitar, ukulele, drums are parodies/interpretations of the original songs. You may use it for private study, scholarship, research or language learning purposes only